  0
SECTION
  2
HEADER
  9
$ACADVER
  1
AC1014
  9
$ACADMAINTVER
 70
     9
  9
$DWGCODEPAGE
  3
ANSI_1252
  9
$INSBASE
 10
0.0
 20
0.0
 30
0.0
  9
$EXTMIN
 10
1.000000000000000E+20
 20
1.000000000000000E+20
 30
1.000000000000000E+20
  9
$EXTMAX
 10
-1.000000000000000E+20
 20
-1.000000000000000E+20
 30
-1.000000000000000E+20
  9
$LIMMIN
 10
0.0
 20
0.0
  9
$LIMMAX
 10
12.0
 20
9.0
  9
$ORTHOMODE
 70
     0
  9
$REGENMODE
 70
     1
  9
$FILLMODE
 70
     1
  9
$QTEXTMODE
 70
     0
  9
$MIRRTEXT
 70
     1
  9
$DRAGMODE
 70
     2
  9
$LTSCALE
 40
1.0
  9
$OSMODE
 70
    37
  9
$ATTMODE
 70
     1
  9
$TEXTSIZE
 40
0.2
  9
$TRACEWID
 40
0.05
  9
$TEXTSTYLE
  7
STANDARD
  9
$CLAYER
  8
0
  9
$CELTYPE
  6
BYLAYER
  9
$CECOLOR
 62
   256
  9
$CELTSCALE
 40
1.0
  9
$DELOBJ
 70
     1
  9
$DISPSILH
 70
     0
  9
$DIMSCALE
 40
1.0
  9
$DIMASZ
 40
0.18
  9
$DIMEXO
 40
0.0625
  9
$DIMDLI
 40
0.38
  9
$DIMRND
 40
0.0
  9
$DIMDLE
 40
0.0
  9
$DIMEXE
 40
0.18
  9
$DIMTP
 40
0.0
  9
$DIMTM
 40
0.0
  9
$DIMTXT
 40
0.18
  9
$DIMCEN
 40
0.09
  9
$DIMTSZ
 40
0.0
  9
$DIMTOL
 70
     0
  9
$DIMLIM
 70
     0
  9
$DIMTIH
 70
     1
  9
$DIMTOH
 70
     1
  9
$DIMSE1
 70
     0
  9
$DIMSE2
 70
     0
  9
$DIMTAD
 70
     0
  9
$DIMZIN
 70
     0
  9
$DIMBLK
  1

  9
$DIMASO
 70
     1
  9
$DIMSHO
 70
     1
  9
$DIMPOST
  1

  9
$DIMAPOST
  1

  9
$DIMALT
 70
     0
  9
$DIMALTD
 70
     2
  9
$DIMALTF
 40
25.4
  9
$DIMLFAC
 40
1.0
  9
$DIMTOFL
 70
     0
  9
$DIMTVP
 40
0.0
  9
$DIMTIX
 70
     0
  9
$DIMSOXD
 70
     0
  9
$DIMSAH
 70
     0
  9
$DIMBLK1
  1

  9
$DIMBLK2
  1

  9
$DIMSTYLE
  2
STANDARD
  9
$DIMCLRD
 70
     0
  9
$DIMCLRE
 70
     0
  9
$DIMCLRT
 70
     0
  9
$DIMTFAC
 40
1.0
  9
$DIMGAP
 40
0.09
  9
$DIMJUST
 70
     0
  9
$DIMSD1
 70
     0
  9
$DIMSD2
 70
     0
  9
$DIMTOLJ
 70
     1
  9
$DIMTZIN
 70
     0
  9
$DIMALTZ
 70
     0
  9
$DIMALTTZ
 70
     0
  9
$DIMFIT
 70
     3
  9
$DIMUPT
 70
     0
  9
$DIMUNIT
 70
     2
  9
$DIMDEC
 70
     4
  9
$DIMTDEC
 70
     4
  9
$DIMALTU
 70
     2
  9
$DIMALTTD
 70
     2
  9
$DIMTXSTY
  7
STANDARD
  9
$DIMAUNIT
 70
     0
  9
$LUNITS
 70
     2
  9
$LUPREC
 70
     4
  9
$SKETCHINC
 40
0.1
  9
$FILLETRAD
 40
0.5
  9
$AUNITS
 70
     0
  9
$AUPREC
 70
     0
  9
$MENU
  1
.
  9
$ELEVATION
 40
0.0
  9
$PELEVATION
 40
0.0
  9
$THICKNESS
 40
0.0
  9
$LIMCHECK
 70
     0
  9
$CHAMFERA
 40
0.0
  9
$CHAMFERB
 40
0.0
  9
$CHAMFERC
 40
0.0
  9
$CHAMFERD
 40
0.0
  9
$SKPOLY
 70
     0
  9
$TDCREATE
 40
2457827.617719907
  9
$TDUPDATE
 40
2457827.617719907
  9
$TDINDWG
 40
0.0000000116
  9
$TDUSRTIMER
 40
0.0000000116
  9
$USRTIMER
 70
     1
  9
$ANGBASE
 50
0.0
  9
$ANGDIR
 70
     0
  9
$PDMODE
 70
     0
  9
$PDSIZE
 40
0.0
  9
$PLINEWID
 40
0.0
  9
$COORDS
 70
     1
  9
$SPLFRAME
 70
     0
  9
$SPLINETYPE
 70
     6
  9
$SPLINESEGS
 70
     8
  9
$ATTDIA
 70
     0
  9
$ATTREQ
 70
     1
  9
$HANDLING
 70
     1
  9
$HANDSEED
  5
100004AB
  9
$SURFTAB1
 70
     6
  9
$SURFTAB2
 70
     6
  9
$SURFTYPE
 70
     6
  9
$SURFU
 70
     6
  9
$SURFV
 70
     6
  9
$UCSNAME
  2

  9
$UCSORG
 10
0.0
 20
0.0
 30
0.0
  9
$UCSXDIR
 10
1.0
 20
0.0
 30
0.0
  9
$UCSYDIR
 10
0.0
 20
1.0
 30
0.0
  9
$PUCSNAME
  2

  9
$PUCSORG
 10
0.0
 20
0.0
 30
0.0
  9
$PUCSXDIR
 10
1.0
 20
0.0
 30
0.0
  9
$PUCSYDIR
 10
0.0
 20
1.0
 30
0.0
  9
$USERI1
 70
     0
  9
$USERI2
 70
     0
  9
$USERI3
 70
     0
  9
$USERI4
 70
     0
  9
$USERI5
 70
     0
  9
$USERR1
 40
0.0
  9
$USERR2
 40
0.0
  9
$USERR3
 40
0.0
  9
$USERR4
 40
0.0
  9
$USERR5
 40
0.0
  9
$WORLDVIEW
 70
     1
  9
$SHADEDGE
 70
     3
  9
$SHADEDIF
 70
    70
  9
$TILEMODE
 70
     1
  9
$MAXACTVP
 70
    64
  9
$PINSBASE
 10
0.0
 20
0.0
 30
0.0
  9
$PLIMCHECK
 70
     0
  9
$PEXTMIN
 10
1.000000000000000E+20
 20
1.000000000000000E+20
 30
1.000000000000000E+20
  9
$PEXTMAX
 10
-1.000000000000000E+20
 20
-1.000000000000000E+20
 30
-1.000000000000000E+20
  9
$PLIMMIN
 10
0.0
 20
0.0
  9
$PLIMMAX
 10
12.0
 20
9.0
  9
$UNITMODE
 70
     0
  9
$VISRETAIN
 70
     1
  9
$PLINEGEN
 70
     0
  9
$PSLTSCALE
 70
     1
  9
$TREEDEPTH
 70
  3020
  9
$PICKSTYLE
 70
     1
  9
$CMLSTYLE
  2
STANDARD
  9
$CMLJUST
 70
     0
  9
$CMLSCALE
 40
1.0
  9
$PROXYGRAPHICS
 70
     1
  9
$MEASUREMENT
 70
     0
  0
ENDSEC
  0
SECTION
  2
CLASSES
  0
CLASS
  1
ACDBDICTIONARYWDFLT
  2
AcDbDictionaryWithDefault
  3
ObjectDBX Classes
 90
        0
280
     0
281
     0
  0
CLASS
  1
VISUALSTYLE
  2
AcDbVisualStyle
  3
ObjectDBX Classes
 90
     4095
280
     0
281
     0
  0
CLASS
  1
MATERIAL
  2
AcDbMaterial
  3
ObjectDBX Classes
 90
     1153
280
     0
281
     0
  0
CLASS
  1
SCALE
  2
AcDbScale
  3
ObjectDBX Classes
 90
     1153
280
     0
281
     0
  0
CLASS
  1
TABLESTYLE
  2
AcDbTableStyle
  3
ObjectDBX Classes
 90
     4095
280
     0
281
     0
  0
CLASS
  1
MLEADERSTYLE
  2
AcDbMLeaderStyle
  3
ACDB_MLEADERSTYLE_CLASS
 90
     4095
280
     0
281
     0
  0
CLASS
  1
SUN
  2
AcDbSun
  3
SCENEOE
 90
     1153
280
     0
281
     0
  0
CLASS
  1
SORTENTSTABLE
  2
AcDbSortentsTable
  3
ObjectDBX Classes
 90
        0
280
     0
281
     0
  0
CLASS
  1
DICTIONARYVAR
  2
AcDbDictionaryVar
  3
ObjectDBX Classes
 90
        0
280
     0
281
     0
  0
CLASS
  1
XRECORD
  2
AcDbXrecord
  3
ObjectDBX Classes
 90
        0
280
     0
281
     0
  0
CLASS
  1
LWPOLYLINE
  2
AcDbPolyline
  3
ObjectDBX Classes
 90
        0
280
     0
281
     1
  0
CLASS
  1
HATCH
  2
AcDbHatch
  3
ObjectDBX Classes
 90
        0
280
     0
281
     1
  0
CLASS
  1
ACDBPLACEHOLDER
  2
AcDbPlaceHolder
  3
ObjectDBX Classes
 90
        0
280
     0
281
     0
  0
CLASS
  1
LAYOUT
  2
AcDbLayout
  3
ObjectDBX Classes
 90
        0
280
     0
281
     0
  0
ENDSEC
  0
SECTION
  2
TABLES
  0
TABLE
  2
VPORT
  5
8
102
{ACAD_XDICTIONARY
360
100004A0
102
}
330
0
100
AcDbSymbolTable
 70
     1
  0
VPORT
  5
29
330
8
100
AcDbSymbolTableRecord
100
AcDbViewportTableRecord
  2
*ACTIVE
 70
     0
 10
0.0
 20
0.0
 11
1.0
 21
1.0
 12
10.42990654205607
 22
4.5
 13
0.0
 23
0.0
 14
0.5
 24
0.5
 15
0.5
 25
0.5
 16
0.0
 26
0.0
 36
1.0
 17
0.0
 27
0.0
 37
0.0
 40
9.0
 41
1.972972972850329
 42
50.0
 43
0.0
 44
0.0
 50
0.0
 51
0.0
 71
     0
 72
   100
 73
     1
 74
     3
 75
     0
 76
     0
 77
     0
 78
     0
  0
ENDTAB
  0
TABLE
  2
LTYPE
  5
5
330
0
100
AcDbSymbolTable
 70
     6
  0
LTYPE
  5
14
330
5
100
AcDbSymbolTableRecord
100
AcDbLinetypeTableRecord
  2
BYBLOCK
 70
     0
  3

 72
    65
 73
     0
 40
0.0
  0
LTYPE
  5
15
330
5
100
AcDbSymbolTableRecord
100
AcDbLinetypeTableRecord
  2
BYLAYER
 70
     0
  3

 72
    65
 73
     0
 40
0.0
  0
LTYPE
  5
16
330
5
100
AcDbSymbolTableRecord
100
AcDbLinetypeTableRecord
  2
CONTINUOUS
 70
     0
  3
Solid line
 72
    65
 73
     0
 40
0.0
  0
LTYPE
  5
10000024
330
5
100
AcDbSymbolTableRecord
100
AcDbLinetypeTableRecord
  2
ONS_PHANTOM
 70
     0
  3
Onshape Phantom line ______ __ __ ______
 72
    65
 73
     6
 40
1.275
 49
0.75
 74
     0
 49
-0.075
 74
     0
 49
0.15
 74
     0
 49
-0.075
 74
     0
 49
0.15
 74
     0
 49
-0.075
 74
     0
  0
LTYPE
  5
10000025
330
5
100
AcDbSymbolTableRecord
100
AcDbLinetypeTableRecord
  2
CENTER
 70
     0
  3
Center line ____ _ ____ _ ____ _
 72
    65
 73
     4
 40
0.7199999999999999
 49
0.45
 74
     0
 49
-0.09
 74
     0
 49
0.09
 74
     0
 49
-0.09
 74
     0
  0
LTYPE
  5
10000026
330
5
100
AcDbSymbolTableRecord
100
AcDbLinetypeTableRecord
  2
DASHED
 70
     0
  3
Dashed line __ __ __ __ __
 72
    65
 73
     2
 40
0.75
 49
0.5
 74
     0
 49
-0.25
 74
     0
  0
LTYPE
  5
10000027
330
5
100
AcDbSymbolTableRecord
100
AcDbLinetypeTableRecord
  2
ONS_DASHDOT
 70
     0
  3
Onshape Dashed with Dot _ . ____ . ____
 72
    65
 73
     4
 40
0.71
 49
0.5
 74
     0
 49
-0.1
 74
     0
 49
0.01
 74
     0
 49
-0.1
 74
     0
  0
LTYPE
  5
10000028
330
5
100
AcDbSymbolTableRecord
100
AcDbLinetypeTableRecord
  2
HIDDEN
 70
     0
  3
Hidden line ____ ____ ____ ____ 
 72
    65
 73
     2
 40
0.15
 49
0.1
 74
     0
 49
-0.05
 74
     0
  0
ENDTAB
  0
TABLE
  2
LAYER
  5
2
330
0
100
AcDbSymbolTable
 70
    32
  0
LAYER
  5
10
330
2
100
AcDbSymbolTableRecord
100
AcDbLayerTableRecord
  2
0
 70
     0
 62
     7
  6
CONTINUOUS
  0
LAYER
  5
10000029
330
2
100
AcDbSymbolTableRecord
100
AcDbLayerTableRecord
  2
SECTION_CUTTING_LINE
 70
     0
 62
     7
  6
ONS_PHANTOM
  0
LAYER
  5
1000002A
330
2
100
AcDbSymbolTableRecord
100
AcDbLayerTableRecord
  2
DETAIL_VIEW_BORDER
 70
     0
 62
     7
  6
CONTINUOUS
  0
LAYER
  5
1000002B
330
2
100
AcDbSymbolTableRecord
100
AcDbLayerTableRecord
  2
DETAIL_VIEW_PARENT_BORDER
 70
     0
 62
     7
  6
ONS_PHANTOM
  0
LAYER
  5
1000002C
330
2
100
AcDbSymbolTableRecord
100
AcDbLayerTableRecord
  2
TEXT
 70
     0
 62
     7
  6
CONTINUOUS
  0
LAYER
  5
1000002D
330
2
100
AcDbSymbolTableRecord
100
AcDbLayerTableRecord
  2
SKETCHED_GEOMETRY
 70
     0
 62
     7
  6
CONTINUOUS
  0
LAYER
  5
1000002E
330
2
100
AcDbSymbolTableRecord
100
AcDbLayerTableRecord
  2
CENTERLINES
 70
     0
 62
     7
  6
CENTER
  0
LAYER
  5
1000002F
330
2
100
AcDbSymbolTableRecord
100
AcDbLayerTableRecord
  2
CENTERMARKS
 70
     0
 62
     7
  6
CONTINUOUS
  0
LAYER
  5
10000030
330
2
100
AcDbSymbolTableRecord
100
AcDbLayerTableRecord
  2
TABLES
 70
     0
 62
     7
  6
CONTINUOUS
  0
LAYER
  5
10000031
330
2
100
AcDbSymbolTableRecord
100
AcDbLayerTableRecord
  2
IMAGES
 70
     0
 62
     7
  6
CONTINUOUS
  0
LAYER
  5
10000032
330
2
100
AcDbSymbolTableRecord
100
AcDbLayerTableRecord
  2
ANNOTATION_LINES
 70
     0
 62
     7
  6
CONTINUOUS
  0
LAYER
  5
10000033
330
2
100
AcDbSymbolTableRecord
100
AcDbLayerTableRecord
  2
ANNOTATION_TEXT
 70
     0
 62
     7
  6
CONTINUOUS
  0
LAYER
  5
10000034
330
2
100
AcDbSymbolTableRecord
100
AcDbLayerTableRecord
  2
SIDE_THREAD_SYMBOLS
 70
     0
 62
     7
  6
HIDDEN
  0
LAYER
  5
10000035
330
2
100
AcDbSymbolTableRecord
100
AcDbLayerTableRecord
  2
SIDE_THREAD_SYMBOLS_HIDDEN
 70
     0
 62
    -7
  6
HIDDEN
  0
LAYER
  5
10000036
330
2
100
AcDbSymbolTableRecord
100
AcDbLayerTableRecord
  2
SURFACE_THREAD_SYMBOLS
 70
     0
 62
     7
  6
HIDDEN
  0
LAYER
  5
10000037
330
2
100
AcDbSymbolTableRecord
100
AcDbLayerTableRecord
  2
SURFACE_THREAD_SYMBOLS_ON_
 70
     0
 62
     7
  6
HIDDEN
  0
LAYER
  5
10000038
330
2
100
AcDbSymbolTableRecord
100
AcDbLayerTableRecord
  2
SURFACE_THREAD_SYMBOLS_HID
 70
     0
 62
    -7
  6
HIDDEN
  0
LAYER
  5
10000039
330
2
100
AcDbSymbolTableRecord
100
AcDbLayerTableRecord
  2
BLIND_THREAD_SYMBOLS
 70
     0
 62
     7
  6
CONTINUOUS
  0
LAYER
  5
1000003A
330
2
100
AcDbSymbolTableRecord
100
AcDbLayerTableRecord
  2
BLIND_THREAD_SYMBOLS_HIDDE
 70
     0
 62
    -7
  6
HIDDEN
  0
LAYER
  5
1000003B
330
2
100
AcDbSymbolTableRecord
100
AcDbLayerTableRecord
  2
EXPLODE_LINES
 70
     0
 62
     7
  6
CONTINUOUS
  0
LAYER
  5
1000003C
330
2
100
AcDbSymbolTableRecord
100
AcDbLayerTableRecord
  2
BREAK_LINES
 70
     0
 62
     7
  6
CONTINUOUS
  0
LAYER
  5
1000003D
330
2
100
AcDbSymbolTableRecord
100
AcDbLayerTableRecord
  2
SHEETMETAL_BEND_LINES_UP
 70
     0
 62
     7
  6
CENTER
  0
LAYER
  5
1000003E
330
2
100
AcDbSymbolTableRecord
100
AcDbLayerTableRecord
  2
SHEETMETAL_BEND_LINES_DOWN
 70
     0
 62
     7
  6
CENTER
  0
LAYER
  5
1000003F
330
2
100
AcDbSymbolTableRecord
100
AcDbLayerTableRecord
  2
SHEETMETAL_BEND_TANGENT_LI
 70
     0
 62
     7
  6
CONTINUOUS
  0
LAYER
  5
10000040
330
2
100
AcDbSymbolTableRecord
100
AcDbLayerTableRecord
  2
SHEETMETAL_CUT_LINES
 70
     0
 62
     7
  6
CONTINUOUS
  0
LAYER
  5
10000041
330
2
100
AcDbSymbolTableRecord
100
AcDbLayerTableRecord
  2
HIDDEN
 70
     0
 62
    -7
  6
HIDDEN
  0
LAYER
  5
10000042
330
2
100
AcDbSymbolTableRecord
100
AcDbLayerTableRecord
  2
VISIBLE
 70
     0
 62
     7
  6
CONTINUOUS
  0
LAYER
  5
10000043
330
2
100
AcDbSymbolTableRecord
100
AcDbLayerTableRecord
  2
TANGENT_LINES
 70
     0
 62
     7
  6
CONTINUOUS
  0
LAYER
  5
10000044
330
2
100
AcDbSymbolTableRecord
100
AcDbLayerTableRecord
  2
TANGENT_HIDDEN
 70
     0
 62
    -7
  6
HIDDEN
  0
LAYER
  5
10000045
330
2
100
AcDbSymbolTableRecord
100
AcDbLayerTableRecord
  2
INVISIBLE_LINES
 70
     0
 62
    -7
  6
CONTINUOUS
  0
LAYER
  5
10000046
330
2
100
AcDbSymbolTableRecord
100
AcDbLayerTableRecord
  2
VIEW_HATCHES
 70
     0
 62
     7
  6
CONTINUOUS
  0
LAYER
  5
10000047
330
2
100
AcDbSymbolTableRecord
100
AcDbLayerTableRecord
  2
SECTION_JOG_LINES
 70
     0
 62
    -7
  6
CONTINUOUS
  0
ENDTAB
  0
TABLE
  2
STYLE
  5
3
330
0
100
AcDbSymbolTable
 70
     2
  0
STYLE
  5
11
330
3
100
AcDbSymbolTableRecord
100
AcDbTextStyleTableRecord
  2
STANDARD
 70
     0
 40
0.0
 41
1.0
 50
0.0
 71
     0
 42
0.2
  3
txt
  4

  0
STYLE
  5
10000004
330
3
100
AcDbSymbolTableRecord
100
AcDbTextStyleTableRecord
  2
TTFSTYLE
 70
     0
 40
0.0
 41
1.0
 50
0.0
 71
     0
 42
0.2
  3
Verdana.ttf
  4

1001
ACAD
1000
Verdana
1071
       34
  0
ENDTAB
  0
TABLE
  2
VIEW
  5
6
330
0
100
AcDbSymbolTable
 70
     0
  0
ENDTAB
  0
TABLE
  2
UCS
  5
7
330
0
100
AcDbSymbolTable
 70
     0
  0
ENDTAB
  0
TABLE
  2
APPID
  5
9
330
0
100
AcDbSymbolTable
 70
     2
  0
APPID
  5
12
330
9
100
AcDbSymbolTableRecord
100
AcDbRegAppTableRecord
  2
ACAD
 70
     0
  0
APPID
  5
100004AA
330
9
100
AcDbSymbolTableRecord
100
AcDbRegAppTableRecord
  2
ACAD_MLEADERVER
 70
     0
  0
ENDTAB
  0
TABLE
  2
DIMSTYLE
  5
A
330
0
100
AcDbSymbolTable
 70
     1
  0
DIMSTYLE
105
27
330
A
100
AcDbSymbolTableRecord
100
AcDbDimStyleTableRecord
  2
STANDARD
 70
     0
  3

  4

  5

  6

  7

 40
1.0
 41
0.18
 42
0.0625
 43
0.38
 44
0.18
 45
0.0
 46
0.0
 47
0.0
 48
0.0
140
0.18
141
0.09
142
0.0
143
25.4
144
1.0
145
0.0
146
1.0
147
0.09
 71
     0
 72
     0
 73
     1
 74
     1
 75
     0
 76
     0
 77
     0
 78
     0
170
     0
171
     2
172
     0
173
     0
174
     0
175
     0
176
     0
177
     0
178
     0
270
     2
271
     4
272
     4
273
     2
274
     2
340
11
275
     0
280
     0
281
     0
282
     0
283
     1
284
     0
285
     0
286
     0
287
     3
288
     0
  0
ENDTAB
  0
TABLE
  2
BLOCK_RECORD
  5
1
330
0
100
AcDbSymbolTable
 70
     1
  0
BLOCK_RECORD
  5
1F
102
{ACAD_XDICTIONARY
360
10000475
102
}
330
1
100
AcDbSymbolTableRecord
100
AcDbBlockTableRecord
  2
*MODEL_SPACE
  0
BLOCK_RECORD
  5
1B
330
1
100
AcDbSymbolTableRecord
100
AcDbBlockTableRecord
  2
*PAPER_SPACE
  0
ENDTAB
  0
ENDSEC
  0
SECTION
  2
BLOCKS
  0
BLOCK
  5
20
330
1F
100
AcDbEntity
  8
0
100
AcDbBlockBegin
  2
*MODEL_SPACE
 70
     0
 10
0.0
 20
0.0
 30
0.0
  3
*MODEL_SPACE
  1

  0
ENDBLK
  5
21
330
1F
100
AcDbEntity
  8
0
100
AcDbBlockEnd
  0
BLOCK
  5
1C
330
1B
100
AcDbEntity
 67
     1
  8
0
100
AcDbBlockBegin
  2
*PAPER_SPACE
 70
     0
 10
0.0
 20
0.0
 30
0.0
  3
*PAPER_SPACE
  1

  0
ENDBLK
  5
1D
330
1B
100
AcDbEntity
 67
     1
  8
0
100
AcDbBlockEnd
  0
ENDSEC
  0
SECTION
  2
ENTITIES
  0
LINE
  5
F47B3
102
{ACAD_XDICTIONARY
360
10000048
102
}
330
1F
100
AcDbEntity
  8
VISIBLE
100
AcDbLine
 10
-13.63957537502485
 20
-20.0
 30
0.0
 11
-13.71538448547286
 21
-20.0
 31
0.0
  0
LINE
  5
F47B4
102
{ACAD_XDICTIONARY
360
1000004A
102
}
330
1F
100
AcDbEntity
  8
VISIBLE
100
AcDbLine
 10
-13.63957537502485
 20
-19.73751643261065
 30
0.0
 11
-13.63957537502485
 21
-20.0
 31
0.0
  0
POLYLINE
  5
F47B5
102
{ACAD_XDICTIONARY
360
1000004F
102
}
330
1F
100
AcDbEntity
  8
VISIBLE
100
AcDb3dPolyline
 66
     1
 10
0.0
 20
0.0
 30
0.0
 70
     8
  0
VERTEX
  5
1000004C
330
F47B5
100
AcDbEntity
  8
VISIBLE
100
AcDbVertex
100
AcDb3dPolylineVertex
 10
-13.60305846247764
 20
-19.59736452225445
 30
0.0
 70
    32
  0
VERTEX
  5
1000004D
330
F47B5
100
AcDbEntity
  8
VISIBLE
100
AcDbVertex
100
AcDb3dPolylineVertex
 10
-13.63250570075571
 20
-19.66222697243495
 30
0.0
 70
    32
  0
VERTEX
  5
1000004E
330
F47B5
100
AcDbEntity
  8
VISIBLE
100
AcDbVertex
100
AcDb3dPolylineVertex
 10
-13.63957537502485
 20
-19.73751643261065
 30
0.0
 70
    32
  0
SEQEND
  5
10000051
330
F47B5
100
AcDbEntity
  8
VISIBLE
  0
POLYLINE
  5
F47B6
102
{ACAD_XDICTIONARY
360
10000055
102
}
330
1F
100
AcDbEntity
  8
VISIBLE
100
AcDb3dPolyline
 66
     1
 10
0.0
 20
0.0
 30
0.0
 70
     8
  0
VERTEX
  5
10000052
330
F47B6
100
AcDbEntity
  8
VISIBLE
100
AcDbVertex
100
AcDb3dPolylineVertex
 10
-13.48810322177901
 20
-19.55493186987459
 30
0.0
 70
    32
  0
VERTEX
  5
10000053
330
F47B6
100
AcDbEntity
  8
VISIBLE
100
AcDbVertex
100
AcDb3dPolylineVertex
 10
-13.56280759337512
 20
-19.56823874966091
 30
0.0
 70
    32
  0
VERTEX
  5
10000054
330
F47B6
100
AcDbEntity
  8
VISIBLE
100
AcDbVertex
100
AcDb3dPolylineVertex
 10
-13.60305846247764
 20
-19.59736452225445
 30
0.0
 70
    32
  0
SEQEND
  5
10000057
330
F47B6
100
AcDbEntity
  8
VISIBLE
  0
POLYLINE
  5
F47B7
102
{ACAD_XDICTIONARY
360
1000005B
102
}
330
1F
100
AcDbEntity
  8
VISIBLE
100
AcDb3dPolyline
 66
     1
 10
0.0
 20
0.0
 30
0.0
 70
     8
  0
VERTEX
  5
10000058
330
F47B7
100
AcDbEntity
  8
VISIBLE
100
AcDbVertex
100
AcDb3dPolylineVertex
 10
-13.40082780079118
 20
-19.58509483963859
 30
0.0
 70
    32
  0
VERTEX
  5
10000059
330
F47B7
100
AcDbEntity
  8
VISIBLE
100
AcDbVertex
100
AcDb3dPolylineVertex
 10
-13.44190997010445
 20
-19.5607714208209
 30
0.0
 70
    32
  0
VERTEX
  5
1000005A
330
F47B7
100
AcDbEntity
  8
VISIBLE
100
AcDbVertex
100
AcDb3dPolylineVertex
 10
-13.48810322177901
 20
-19.55493186987459
 30
0.0
 70
    32
  0
SEQEND
  5
1000005D
330
F47B7
100
AcDbEntity
  8
VISIBLE
  0
POLYLINE
  5
F47B8
102
{ACAD_XDICTIONARY
360
10000061
102
}
330
1F
100
AcDbEntity
  8
VISIBLE
100
AcDb3dPolyline
 66
     1
 10
0.0
 20
0.0
 30
0.0
 70
     8
  0
VERTEX
  5
1000005E
330
F47B8
100
AcDbEntity
  8
VISIBLE
100
AcDbVertex
100
AcDb3dPolylineVertex
 10
-13.3730019134302
 20
-19.67631408718152
 30
0.0
 70
    32
  0
VERTEX
  5
1000005F
330
F47B8
100
AcDbEntity
  8
VISIBLE
100
AcDbVertex
100
AcDb3dPolylineVertex
 10
-13.38172811170661
 20
-19.6176191974626
 30
0.0
 70
    32
  0
VERTEX
  5
10000060
330
F47B8
100
AcDbEntity
  8
VISIBLE
100
AcDbVertex
100
AcDb3dPolylineVertex
 10
-13.40082780079118
 20
-19.58509483963859
 30
0.0
 70
    32
  0
SEQEND
  5
10000063
330
F47B8
100
AcDbEntity
  8
VISIBLE
  0
LINE
  5
F47B9
102
{ACAD_XDICTIONARY
360
10000064
102
}
330
1F
100
AcDbEntity
  8
VISIBLE
100
AcDbLine
 10
-13.3730019134302
 20
-20.0
 30
0.0
 11
-13.3730019134302
 21
-19.67631408718152
 31
0.0
  0
POLYLINE
  5
F47BA
102
{ACAD_XDICTIONARY
360
10000069
102
}
330
1F
100
AcDbEntity
  8
VISIBLE
100
AcDb3dPolyline
 66
     1
 10
0.0
 20
0.0
 30
0.0
 70
     8
  0
VERTEX
  5
10000066
330
F47BA
100
AcDbEntity
  8
VISIBLE
100
AcDbVertex
100
AcDb3dPolylineVertex
 10
-13.94551406834538
 20
-19.40229117542725
 30
0.0
 70
    32
  0
VERTEX
  5
10000067
330
F47BA
100
AcDbEntity
  8
VISIBLE
100
AcDbVertex
100
AcDb3dPolylineVertex
 10
-13.95582060174271
 20
-19.38414513281723
 30
0.0
 70
    32
  0
VERTEX
  5
10000068
330
F47BA
100
AcDbEntity
  8
VISIBLE
100
AcDbVertex
100
AcDb3dPolylineVertex
 10
-13.9582949877369
 20
-19.36416751872796
 30
0.0
 70
    32
  0
SEQEND
  5
1000006B
330
F47BA
100
AcDbEntity
  8
VISIBLE
  0
POLYLINE
  5
F47BB
102
{ACAD_XDICTIONARY
360
1000006F
102
}
330
1F
100
AcDbEntity
  8
VISIBLE
100
AcDb3dPolyline
 66
     1
 10
0.0
 20
0.0
 30
0.0
 70
     8
  0
VERTEX
  5
1000006C
330
F47BB
100
AcDbEntity
  8
VISIBLE
100
AcDbVertex
100
AcDb3dPolylineVertex
 10
-13.91345221912893
 20
-19.41485299334349
 30
0.0
 70
    32
  0
VERTEX
  5
1000006D
330
F47BB
100
AcDbEntity
  8
VISIBLE
100
AcDbVertex
100
AcDb3dPolylineVertex
 10
-13.93300845726093
 20
-19.41091360724495
 30
0.0
 70
    32
  0
VERTEX
  5
1000006E
330
F47BB
100
AcDbEntity
  8
VISIBLE
100
AcDbVertex
100
AcDb3dPolylineVertex
 10
-13.94551406834538
 20
-19.40229117542725
 30
0.0
 70
    32
  0
SEQEND
  5
10000071
330
F47BB
100
AcDbEntity
  8
VISIBLE
  0
POLYLINE
  5
F47BC
102
{ACAD_XDICTIONARY
360
10000075
102
}
330
1F
100
AcDbEntity
  8
VISIBLE
100
AcDb3dPolyline
 66
     1
 10
0.0
 20
0.0
 30
0.0
 70
     8
  0
VERTEX
  5
10000072
330
F47BC
100
AcDbEntity
  8
VISIBLE
100
AcDbVertex
100
AcDb3dPolylineVertex
 10
-13.88197464051323
 20
-19.40229117542725
 30
0.0
 70
    32
  0
VERTEX
  5
10000073
330
F47BC
100
AcDbEntity
  8
VISIBLE
100
AcDbVertex
100
AcDb3dPolylineVertex
 10
-13.8983603926573
 20
-19.41242102539491
 30
0.0
 70
    32
  0
VERTEX
  5
10000074
330
F47BC
100
AcDbEntity
  8
VISIBLE
100
AcDbVertex
100
AcDb3dPolylineVertex
 10
-13.91345221912893
 20
-19.41485299334349
 30
0.0
 70
    32
  0
SEQEND
  5
10000077
330
F47BC
100
AcDbEntity
  8
VISIBLE
  0
POLYLINE
  5
F47BD
102
{ACAD_XDICTIONARY
360
1000007B
102
}
330
1F
100
AcDbEntity
  8
VISIBLE
100
AcDb3dPolyline
 66
     1
 10
0.0
 20
0.0
 30
0.0
 70
     8
  0
VERTEX
  5
10000078
330
F47BD
100
AcDbEntity
  8
VISIBLE
100
AcDbVertex
100
AcDb3dPolylineVertex
 10
-13.86875551817114
 20
-19.36416751872796
 30
0.0
 70
    32
  0
VERTEX
  5
10000079
330
F47BD
100
AcDbEntity
  8
VISIBLE
100
AcDbVertex
100
AcDb3dPolylineVertex
 10
-13.87290103493762
 20
-19.38871997162114
 30
0.0
 70
    32
  0
VERTEX
  5
1000007A
330
F47BD
100
AcDbEntity
  8
VISIBLE
100
AcDbVertex
100
AcDb3dPolylineVertex
 10
-13.88197464051323
 20
-19.40229117542725
 30
0.0
 70
    32
  0
SEQEND
  5
1000007D
330
F47BD
100
AcDbEntity
  8
VISIBLE
  0
POLYLINE
  5
F47BE
102
{ACAD_XDICTIONARY
360
10000081
102
}
330
1F
100
AcDbEntity
  8
VISIBLE
100
AcDb3dPolyline
 66
     1
 10
0.0
 20
0.0
 30
0.0
 70
     8
  0
VERTEX
  5
1000007E
330
F47BE
100
AcDbEntity
  8
VISIBLE
100
AcDbVertex
100
AcDb3dPolylineVertex
 10
-13.88197464051323
 20
-19.32626296350395
 30
0.0
 70
    32
  0
VERTEX
  5
1000007F
330
F47BE
100
AcDbEntity
  8
VISIBLE
100
AcDbVertex
100
AcDb3dPolylineVertex
 10
-13.87131474025657
 20
-19.34423232268431
 30
0.0
 70
    32
  0
VERTEX
  5
10000080
330
F47BE
100
AcDbEntity
  8
VISIBLE
100
AcDbVertex
100
AcDb3dPolylineVertex
 10
-13.86875551817114
 20
-19.36416751872796
 30
0.0
 70
    32
  0
SEQEND
  5
10000083
330
F47BE
100
AcDbEntity
  8
VISIBLE
  0
POLYLINE
  5
F47BF
102
{ACAD_XDICTIONARY
360
10000087
102
}
330
1F
100
AcDbEntity
  8
VISIBLE
100
AcDb3dPolyline
 66
     1
 10
0.0
 20
0.0
 30
0.0
 70
     8
  0
VERTEX
  5
10000084
330
F47BF
100
AcDbEntity
  8
VISIBLE
100
AcDbVertex
100
AcDb3dPolylineVertex
 10
-13.91345221912893
 20
-19.313920247063
 30
0.0
 70
    32
  0
VERTEX
  5
10000085
330
F47BF
100
AcDbEntity
  8
VISIBLE
100
AcDbVertex
100
AcDb3dPolylineVertex
 10
-13.89458308322341
 20
-19.31779092293888
 30
0.0
 70
    32
  0
VERTEX
  5
10000086
330
F47BF
100
AcDbEntity
  8
VISIBLE
100
AcDbVertex
100
AcDb3dPolylineVertex
 10
-13.88197464051323
 20
-19.32626296350395
 30
0.0
 70
    32
  0
SEQEND
  5
10000089
330
F47BF
100
AcDbEntity
  8
VISIBLE
  0
POLYLINE
  5
F47C0
102
{ACAD_XDICTIONARY
360
1000008D
102
}
330
1F
100
AcDbEntity
  8
VISIBLE
100
AcDb3dPolyline
 66
     1
 10
0.0
 20
0.0
 30
0.0
 70
     8
  0
VERTEX
  5
1000008A
330
F47C0
100
AcDbEntity
  8
VISIBLE
100
AcDbVertex
100
AcDb3dPolylineVertex
 10
-13.94551406834538
 20
-19.32604386202867
 30
0.0
 70
    32
  0
VERTEX
  5
1000008B
330
F47C0
100
AcDbEntity
  8
VISIBLE
100
AcDbVertex
100
AcDb3dPolylineVertex
 10
-13.92916103535496
 20
-19.31626737892035
 30
0.0
 70
    32
  0
VERTEX
  5
1000008C
330
F47C0
100
AcDbEntity
  8
VISIBLE
100
AcDbVertex
100
AcDb3dPolylineVertex
 10
-13.91345221912893
 20
-19.313920247063
 30
0.0
 70
    32
  0
SEQEND
  5
1000008F
330
F47C0
100
AcDbEntity
  8
VISIBLE
  0
POLYLINE
  5
F47C1
102
{ACAD_XDICTIONARY
360
10000093
102
}
330
1F
100
AcDbEntity
  8
VISIBLE
100
AcDb3dPolyline
 66
     1
 10
0.0
 20
0.0
 30
0.0
 70
     8
  0
VERTEX
  5
10000090
330
F47C1
100
AcDbEntity
  8
VISIBLE
100
AcDbVertex
100
AcDb3dPolylineVertex
 10
-13.9582949877369
 20
-19.36416751872796
 30
0.0
 70
    32
  0
VERTEX
  5
10000091
330
F47C1
100
AcDbEntity
  8
VISIBLE
100
AcDbVertex
100
AcDb3dPolylineVertex
 10
-13.95428689141572
 20
-19.33939911942074
 30
0.0
 70
    32
  0
VERTEX
  5
10000092
330
F47C1
100
AcDbEntity
  8
VISIBLE
100
AcDbVertex
100
AcDb3dPolylineVertex
 10
-13.94551406834538
 20
-19.32604386202867
 30
0.0
 70
    32
  0
SEQEND
  5
10000095
330
F47C1
100
AcDbEntity
  8
VISIBLE
  0
LINE
  5
F47C2
102
{ACAD_XDICTIONARY
360
10000096
102
}
330
1F
100
AcDbEntity
  8
VISIBLE
100
AcDbLine
 10
-13.87605890068058
 20
-19.49971829810321
 30
0.0
 11
-13.87605890068058
 21
-20.0
 31
0.0
  0
LINE
  5
F47C3
102
{ACAD_XDICTIONARY
360
1000009B
102
}
330
1F
100
AcDbEntity
  8
VISIBLE
100
AcDbLine
 10
-13.9518680111286
 20
-19.49971829810321
 30
0.0
 11
-13.87605890068058
 21
-19.49971829810321
 31
0.0
  0
LINE
  5
F47C4
102
{ACAD_XDICTIONARY
360
100000A0
102
}
330
1F
100
AcDbEntity
  8
VISIBLE
100
AcDbLine
 10
-13.9518680111286
 20
-20.0
 30
0.0
 11
-13.9518680111286
 21
-19.49971829810321
 31
0.0
  0
LINE
  5
F47C5
102
{ACAD_XDICTIONARY
360
100000A5
102
}
330
1F
100
AcDbEntity
  8
VISIBLE
100
AcDbLine
 10
-13.87605890068058
 20
-20.0
 30
0.0
 11
-13.9518680111286
 21
-20.0
 31
0.0
  0
POLYLINE
  5
F47C6
102
{ACAD_XDICTIONARY
360
100000AD
102
}
330
1F
100
AcDbEntity
  8
VISIBLE
100
AcDb3dPolyline
 66
     1
 10
0.0
 20
0.0
 30
0.0
 70
     8
  0
VERTEX
  5
100000AA
330
F47C6
100
AcDbEntity
  8
VISIBLE
100
AcDbVertex
100
AcDb3dPolylineVertex
 10
-14.43717777888103
 20
-19.59217912067275
 30
0.0
 70
    32
  0
VERTEX
  5
100000AB
330
F47C6
100
AcDbEntity
  8
VISIBLE
100
AcDbVertex
100
AcDb3dPolylineVertex
 10
-14.48155803888145
 20
-19.56143620391044
 30
0.0
 70
    32
  0
VERTEX
  5
100000AC
330
F47C6
100
AcDbEntity
  8
VISIBLE
100
AcDbVertex
100
AcDb3dPolylineVertex
 10
-14.52854309407416
 20
-19.55405546397346
 30
0.0
 70
    32
  0
SEQEND
  5
100000AF
330
F47C6
100
AcDbEntity
  8
VISIBLE
  0
POLYLINE
  5
F47C7
102
{ACAD_XDICTIONARY
360
100000B3
102
}
330
1F
100
AcDbEntity
  8
VISIBLE
100
AcDb3dPolyline
 66
     1
 10
0.0
 20
0.0
 30
0.0
 70
     8
  0
VERTEX
  5
100000B0
330
F47C7
100
AcDbEntity
  8
VISIBLE
100
AcDbVertex
100
AcDb3dPolylineVertex
 10
-14.40526199731477
 20
-19.70187592596457
 30
0.0
 70
    32
  0
VERTEX
  5
100000B1
330
F47C7
100
AcDbEntity
  8
VISIBLE
100
AcDbVertex
100
AcDb3dPolylineVertex
 10
-14.41527078641395
 20
-19.63220376019865
 30
0.0
 70
    32
  0
VERTEX
  5
100000B2
330
F47C7
100
AcDbEntity
  8
VISIBLE
100
AcDbVertex
100
AcDb3dPolylineVertex
 10
-14.43717777888103
 20
-19.59217912067275
 30
0.0
 70
    32
  0
SEQEND
  5
100000B5
330
F47C7
100
AcDbEntity
  8
VISIBLE
  0
LINE
  5
F47C8
102
{ACAD_XDICTIONARY
360
100000B6
102
}
330
1F
100
AcDbEntity
  8
VISIBLE
100
AcDbLine
 10
-14.66686915880299
 20
-19.70187592596457
 30
0.0
 11
-14.40526199731477
 21
-19.70187592596457
 31
0.0
  0
POLYLINE
  5
F47C9
102
{ACAD_XDICTIONARY
360
100000BB
102
}
330
1F
100
AcDbEntity
  8
VISIBLE
100
AcDb3dPolyline
 66
     1
 10
0.0
 20
0.0
 30
0.0
 70
     8
  0
VERTEX
  5
100000B8
330
F47C9
100
AcDbEntity
  8
VISIBLE
100
AcDbVertex
100
AcDb3dPolylineVertex
 10
-14.62458257407332
 20
-19.59327462804916
 30
0.0
 70
    32
  0
VERTEX
  5
100000B9
330
F47C9
100
AcDbEntity
  8
VISIBLE
100
AcDbVertex
100
AcDb3dPolylineVertex
 10
-14.65551526192676
 20
-19.64665919913194
 30
0.0
 70
    32
  0
VERTEX
  5
100000BA
330
F47C9
100
AcDbEntity
  8
VISIBLE
100
AcDbVertex
100
AcDb3dPolylineVertex
 10
-14.66686915880299
 20
-19.70187592596457
 30
0.0
 70
    32
  0
SEQEND
  5
100000BD
330
F47C9
100
AcDbEntity
  8
VISIBLE
  0
POLYLINE
  5
F47CA
102
{ACAD_XDICTIONARY
360
100000C1
102
}
330
1F
100
AcDbEntity
  8
VISIBLE
100
AcDb3dPolyline
 66
     1
 10
0.0
 20
0.0
 30
0.0
 70
     8
  0
VERTEX
  5
100000BE
330
F47CA
100
AcDbEntity
  8
VISIBLE
100
AcDbVertex
100
AcDb3dPolylineVertex
 10
-14.52854309407416
 20
-19.55405546397346
 30
0.0
 70
    32
  0
VERTEX
  5
100000BF
330
F47CA
100
AcDbEntity
  8
VISIBLE
100
AcDbVertex
100
AcDb3dPolylineVertex
 10
-14.58831771586328
 20
-19.5663545938276
 30
0.0
 70
    32
  0
VERTEX
  5
100000C0
330
F47CA
100
AcDbEntity
  8
VISIBLE
100
AcDbVertex
100
AcDb3dPolylineVertex
 10
-14.62458257407332
 20
-19.59327462804916
 30
0.0
 70
    32
  0
SEQEND
  5
100000C3
330
F47CA
100
AcDbEntity
  8
VISIBLE
  0
POLYLINE
  5
F47CB
102
{ACAD_XDICTIONARY
360
100000C7
102
}
330
1F
100
AcDbEntity
  8
VISIBLE
100
AcDb3dPolyline
 66
     1
 10
0.0
 20
0.0
 30
0.0
 70
     8
  0
VERTEX
  5
100000C4
330
F47CB
100
AcDbEntity
  8
VISIBLE
100
AcDbVertex
100
AcDb3dPolylineVertex
 10
-14.42147550648573
 20
-20.00160674415208
 30
0.0
 70
    32
  0
VERTEX
  5
100000C5
330
F47CB
100
AcDbEntity
  8
VISIBLE
100
AcDbVertex
100
AcDb3dPolylineVertex
 10
-14.46622876483767
 20
-20.00773176971392
 30
0.0
 70
    32
  0
VERTEX
  5
100000C6
330
F47CB
100
AcDbEntity
  8
VISIBLE
100
AcDbVertex
100
AcDb3dPolylineVertex
 10
-14.50794755539753
 20
-20.0092022619619
 30
0.0
 70
    32
  0
SEQEND
  5
100000C9
330
F47CB
100
AcDbEntity
  8
VISIBLE
  0
POLYLINE
  5
F47CC
102
{ACAD_XDICTIONARY
360
100000CD
102
}
330
1F
100
AcDbEntity
  8
VISIBLE
100
AcDb3dPolyline
 66
     1
 10
0.0
 20
0.0
 30
0.0
 70
     8
  0
VERTEX
  5
100000CA
330
F47CC
100
AcDbEntity
  8
VISIBLE
100
AcDbVertex
100
AcDb3dPolylineVertex
 10
-14.34552032838753
 20
-19.97677524361997
 30
0.0
 70
    32
  0
VERTEX
  5
100000CB
330
F47CC
100
AcDbEntity
  8
VISIBLE
100
AcDbVertex
100
AcDb3dPolylineVertex
 10
-14.38913496019272
 20
-19.99305629447238
 30
0.0
 70
    32
  0
VERTEX
  5
100000CC
330
F47CC
100
AcDbEntity
  8
VISIBLE
100
AcDbVertex
100
AcDb3dPolylineVertex
 10
-14.42147550648573
 20
-20.00160674415208
 30
0.0
 70
    32
  0
SEQEND
  5
100000CF
330
F47CC
100
AcDbEntity
  8
VISIBLE
  0
LINE
  5
F47CD
102
{ACAD_XDICTIONARY
360
100000D0
102
}
330
1F
100
AcDbEntity
  8
VISIBLE
100
AcDbLine
 10
-14.34552032838753
 20
-19.90914592158254
 30
0.0
 11
-14.34552032838753
 21
-19.97677524361998
 31
0.0
  0
POLYLINE
  5
F47CE
102
{ACAD_XDICTIONARY
360
100000D8
102
}
330
1F
100
AcDbEntity
  8
VISIBLE
100
AcDb3dPolyline
 66
     1
 10
0.0
 20
0.0
 30
0.0
 70
     8
  0
VERTEX
  5
100000D5
330
F47CE
100
AcDbEntity
  8
VISIBLE
100
AcDbVertex
100
AcDb3dPolylineVertex
 10
-14.50517227004394
 20
-19.94288754877616
 30
0.0
 70
    32
  0
VERTEX
  5
100000D6
330
F47CE
100
AcDbEntity
  8
VISIBLE
100
AcDbVertex
100
AcDb3dPolylineVertex
 10
-14.41529929881927
 20
-19.93230617448824
 30
0.0
 70
    32
  0
VERTEX
  5
100000D7
330
F47CE
100
AcDbEntity
  8
VISIBLE
100
AcDbVertex
100
AcDb3dPolylineVertex
 10
-14.34552032838753
 20
-19.90914592158254
 30
0.0
 70
    32
  0
SEQEND
  5
100000DA
330
F47CE
100
AcDbEntity
  8
VISIBLE
  0
POLYLINE
  5
F47CF
102
{ACAD_XDICTIONARY
360
100000DE
102
}
330
1F
100
AcDbEntity
  8
VISIBLE
100
AcDb3dPolyline
 66
     1
 10
0.0
 20
0.0
 30
0.0
 70
     8
  0
VERTEX
  5
100000DB
330
F47CF
100
AcDbEntity
  8
VISIBLE
100
AcDbVertex
100
AcDb3dPolylineVertex
 10
-14.62407133729766
 20
-19.89724140809215
 30
0.0
 70
    32
  0
VERTEX
  5
100000DC
330
F47CF
100
AcDbEntity
  8
VISIBLE
100
AcDbVertex
100
AcDb3dPolylineVertex
 10
-14.56598175192112
 20
-19.93405045593974
 30
0.0
 70
    32
  0
VERTEX
  5
100000DD
330
F47CF
100
AcDbEntity
  8
VISIBLE
100
AcDbVertex
100
AcDb3dPolylineVertex
 10
-14.50517227004394
 20
-19.94288754877616
 30
0.0
 70
    32
  0
SEQEND
  5
100000E0
330
F47CF
100
AcDbEntity
  8
VISIBLE
  0
POLYLINE
  5
F47D0
102
{ACAD_XDICTIONARY
360
100000E4
102
}
330
1F
100
AcDbEntity
  8
VISIBLE
100
AcDb3dPolyline
 66
     1
 10
0.0
 20
0.0
 30
0.0
 70
     8
  0
VERTEX
  5
100000E1
330
F47D0
100
AcDbEntity
  8
VISIBLE
100
AcDbVertex
100
AcDb3dPolylineVertex
 10
-14.66862197060526
 20
-19.76351647434426
 30
0.0
 70
    32
  0
VERTEX
  5
100000E2
330
F47D0
100
AcDbEntity
  8
VISIBLE
100
AcDbVertex
100
AcDb3dPolylineVertex
 10
-14.65349917779179
 20
-19.84885784278947
 30
0.0
 70
    32
  0
VERTEX
  5
100000E3
330
F47D0
100
AcDbEntity
  8
VISIBLE
100
AcDbVertex
100
AcDb3dPolylineVertex
 10
-14.62407133729766
 20
-19.89724140809215
 30
0.0
 70
    32
  0
SEQEND
  5
100000E6
330
F47D0
100
AcDbEntity
  8
VISIBLE
  0
LINE
  5
F47D1
102
{ACAD_XDICTIONARY
360
100000E7
102
}
330
1F
100
AcDbEntity
  8
VISIBLE
100
AcDbLine
 10
-14.32404838380977
 20
-19.76351647434426
 30
0.0
 11
-14.66862197060526
 21
-19.76351647434426
 31
0.0
  0
LINE
  5
F47D2
102
{ACAD_XDICTIONARY
360
100000EC
102
}
330
1F
100
AcDbEntity
  8
VISIBLE
100
AcDbLine
 10
-14.32404838380977
 20
-19.71560628508232
 30
0.0
 11
-14.32404838380977
 21
-19.76351647434426
 31
0.0
  0
POLYLINE
  5
F47D3
102
{ACAD_XDICTIONARY
360
100000F4
102
}
330
1F
100
AcDbEntity
  8
VISIBLE
100
AcDb3dPolyline
 66
     1
 10
0.0
 20
0.0
 30
0.0
 70
     8
  0
VERTEX
  5
100000F1
330
F47D3
100
AcDbEntity
  8
VISIBLE
100
AcDbVertex
100
AcDb3dPolylineVertex
 10
-14.37882375263059
 20
-19.55237568599629
 30
0.0
 70
    32
  0
VERTEX
  5
100000F2
330
F47D3
100
AcDbEntity
  8
VISIBLE
100
AcDbVertex
100
AcDb3dPolylineVertex
 10
-14.33465289521348
 20
-19.6340492373182
 30
0.0
 70
    32
  0
VERTEX
  5
100000F3
330
F47D3
100
AcDbEntity
  8
VISIBLE
100
AcDbVertex
100
AcDb3dPolylineVertex
 10
-14.32404838380977
 20
-19.71560628508232
 30
0.0
 70
    32
  0
SEQEND
  5
100000F6
330
F47D3
100
AcDbEntity
  8
VISIBLE
  0
POLYLINE
  5
F47D4
102
{ACAD_XDICTIONARY
360
100000FA
102
}
330
1F
100
AcDbEntity
  8
VISIBLE
100
AcDb3dPolyline
 66
     1
 10
0.0
 20
0.0
 30
0.0
 70
     8
  0
VERTEX
  5
100000F7
330
F47D4
100
AcDbEntity
  8
VISIBLE
100
AcDbVertex
100
AcDb3dPolylineVertex
 10
-14.52752062052284
 20
-19.49051603614131
 30
0.0
 70
    32
  0
VERTEX
  5
100000F8
330
F47D4
100
AcDbEntity
  8
VISIBLE
100
AcDbVertex
100
AcDb3dPolylineVertex
 10
-14.43460476800943
 20
-19.50991522233583
 30
0.0
 70
    32
  0
VERTEX
  5
100000F9
330
F47D4
100
AcDbEntity
  8
VISIBLE
100
AcDbVertex
100
AcDb3dPolylineVertex
 10
-14.37882375263059
 20
-19.55237568599629
 30
0.0
 70
    32
  0
SEQEND
  5
100000FC
330
F47D4
100
AcDbEntity
  8
VISIBLE
  0
POLYLINE
  5
F47D5
102
{ACAD_XDICTIONARY
360
10000100
102
}
330
1F
100
AcDbEntity
  8
VISIBLE
100
AcDb3dPolyline
 66
     1
 10
0.0
 20
0.0
 30
0.0
 70
     8
  0
VERTEX
  5
100000FD
330
F47D5
100
AcDbEntity
  8
VISIBLE
100
AcDbVertex
100
AcDb3dPolylineVertex
 10
-14.68761076512981
 20
-19.56172401560837
 30
0.0
 70
    32
  0
VERTEX
  5
100000FE
330
F47D5
100
AcDbEntity
  8
VISIBLE
100
AcDbVertex
100
AcDb3dPolylineVertex
 10
-14.60803778347173
 20
-19.50430190096613
 30
0.0
 70
    32
  0
VERTEX
  5
100000FF
330
F47D5
100
AcDbEntity
  8
VISIBLE
100
AcDbVertex
100
AcDb3dPolylineVertex
 10
-14.52752062052284
 20
-19.49051603614131
 30
0.0
 70
    32
  0
SEQEND
  5
10000102
330
F47D5
100
AcDbEntity
  8
VISIBLE
  0
POLYLINE
  5
F47D6
102
{ACAD_XDICTIONARY
360
10000106
102
}
330
1F
100
AcDbEntity
  8
VISIBLE
100
AcDb3dPolyline
 66
     1
 10
0.0
 20
0.0
 30
0.0
 70
     8
  0
VERTEX
  5
10000103
330
F47D6
100
AcDbEntity
  8
VISIBLE
100
AcDbVertex
100
AcDb3dPolylineVertex
 10
-14.74720636640686
 20
-19.75402207708199
 30
0.0
 70
    32
  0
VERTEX
  5
10000104
330
F47D6
100
AcDbEntity
  8
VISIBLE
100
AcDbVertex
100
AcDb3dPolylineVertex
 10
-14.72851718584637
 20
-19.63404421259104
 30
0.0
 70
    32
  0
VERTEX
  5
10000105
330
F47D6
100
AcDbEntity
  8
VISIBLE
100
AcDbVertex
100
AcDb3dPolylineVertex
 10
-14.68761076512981
 20
-19.56172401560837
 30
0.0
 70
    32
  0
SEQEND
  5
10000108
330
F47D6
100
AcDbEntity
  8
VISIBLE
  0
POLYLINE
  5
F47D7
102
{ACAD_XDICTIONARY
360
1000010C
102
}
330
1F
100
AcDbEntity
  8
VISIBLE
100
AcDb3dPolyline
 66
     1
 10
0.0
 20
0.0
 30
0.0
 70
     8
  0
VERTEX
  5
10000109
330
F47D7
100
AcDbEntity
  8
VISIBLE
100
AcDbVertex
100
AcDb3dPolylineVertex
 10
-14.68300963414886
 20
-19.94157293992446
 30
0.0
 70
    32
  0
VERTEX
  5
1000010A
330
F47D7
100
AcDbEntity
  8
VISIBLE
100
AcDbVertex
100
AcDb3dPolylineVertex
 10
-14.73477787904171
 20
-19.84942925943701
 30
0.0
 70
    32
  0
VERTEX
  5
1000010B
330
F47D7
100
AcDbEntity
  8
VISIBLE
100
AcDbVertex
100
AcDb3dPolylineVertex
 10
-14.74720636640686
 20
-19.75402207708199
 30
0.0
 70
    32
  0
SEQEND
  5
1000010E
330
F47D7
100
AcDbEntity
  8
VISIBLE
  0
POLYLINE
  5
F47D8
102
{ACAD_XDICTIONARY
360
10000112
102
}
330
1F
100
AcDbEntity
  8
VISIBLE
100
AcDb3dPolyline
 66
     1
 10
0.0
 20
0.0
 30
0.0
 70
     8
  0
VERTEX
  5
1000010F
330
F47D8
100
AcDbEntity
  8
VISIBLE
100
AcDbVertex
100
AcDb3dPolylineVertex
 10
-14.50794755539753
 20
-20.0092022619619
 30
0.0
 70
    32
  0
VERTEX
  5
10000110
330
F47D8
100
AcDbEntity
  8
VISIBLE
100
AcDbVertex
100
AcDb3dPolylineVertex
 10
-14.61748146604586
 20
-19.98799370657095
 30
0.0
 70
    32
  0
VERTEX
  5
10000111
330
F47D8
100
AcDbEntity
  8
VISIBLE
100
AcDbVertex
100
AcDb3dPolylineVertex
 10
-14.68300963414886
 20
-19.94157293992446
 30
0.0
 70
    32
  0
SEQEND
  5
10000114
330
F47D8
100
AcDbEntity
  8
VISIBLE
  0
POLYLINE
  5
F47D9
102
{ACAD_XDICTIONARY
360
10000118
102
}
330
1F
100
AcDbEntity
  8
VISIBLE
100
AcDb3dPolyline
 66
     1
 10
0.0
 20
0.0
 30
0.0
 70
     8
  0
VERTEX
  5
10000115
330
F47D9
100
AcDbEntity
  8
VISIBLE
100
AcDbVertex
100
AcDb3dPolylineVertex
 10
-15.20637002477549
 20
-19.89680320514158
 30
0.0
 70
    32
  0
VERTEX
  5
10000116
330
F47D9
100
AcDbEntity
  8
VISIBLE
100
AcDbVertex
100
AcDb3dPolylineVertex
 10
-15.15669580571575
 20
-19.93620360995764
 30
0.0
 70
    32
  0
VERTEX
  5
10000117
330
F47D9
100
AcDbEntity
  8
VISIBLE
100
AcDbVertex
100
AcDb3dPolylineVertex
 10
-15.10317322991707
 20
-19.94566283412975
 30
0.0
 70
    32
  0
SEQEND
  5
1000011A
330
F47D9
100
AcDbEntity
  8
VISIBLE
  0
POLYLINE
  5
F47DA
102
{ACAD_XDICTIONARY
360
1000011E
102
}
330
1F
100
AcDbEntity
  8
VISIBLE
100
AcDb3dPolyline
 66
     1
 10
0.0
 20
0.0
 30
0.0
 70
     8
  0
VERTEX
  5
1000011B
330
F47DA
100
AcDbEntity
  8
VISIBLE
100
AcDbVertex
100
AcDb3dPolylineVertex
 10
-15.24149929464591
 20
-19.75212319762953
 30
0.0
 70
    32
  0
VERTEX
  5
1000011C
330
F47DA
100
AcDbEntity
  8
VISIBLE
100
AcDbVertex
100
AcDb3dPolylineVertex
 10
-15.23048275561455
 20
-19.84471513052188
 30
0.0
 70
    32
  0
VERTEX
  5
1000011D
330
F47DA
100
AcDbEntity
  8
VISIBLE
100
AcDbVertex
100
AcDb3dPolylineVertex
 10
-15.20637002477549
 20
-19.89680320514158
 30
0.0
 70
    32
  0
SEQEND
  5
10000120
330
F47DA
100
AcDbEntity
  8
VISIBLE
  0
POLYLINE
  5
F47DB
102
{ACAD_XDICTIONARY
360
10000124
102
}
330
1F
100
AcDbEntity
  8
VISIBLE
100
AcDb3dPolyline
 66
     1
 10
0.0
 20
0.0
 30
0.0
 70
     8
  0
VERTEX
  5
10000121
330
F47DB
100
AcDbEntity
  8
VISIBLE
100
AcDbVertex
100
AcDb3dPolylineVertex
 10
-15.20615092330021
 20
-19.6058364459654
 30
0.0
 70
    32
  0
VERTEX
  5
10000122
330
F47DB
100
AcDbEntity
  8
VISIBLE
100
AcDbVertex
100
AcDb3dPolylineVertex
 10
-15.23465584995338
 20
-19.67722963921291
 30
0.0
 70
    32
  0
VERTEX
  5
10000123
330
F47DB
100
AcDbEntity
  8
VISIBLE
100
AcDbVertex
100
AcDb3dPolylineVertex
 10
-15.24149929464591
 20
-19.75212319762953
 30
0.0
 70
    32
  0
SEQEND
  5
10000126
330
F47DB
100
AcDbEntity
  8
VISIBLE
  0
POLYLINE
  5
F47DC
102
{ACAD_XDICTIONARY
360
1000012A
102
}
330
1F
100
AcDbEntity
  8
VISIBLE
100
AcDb3dPolyline
 66
     1
 10
0.0
 20
0.0
 30
0.0
 70
     8
  0
VERTEX
  5
10000127
330
F47DC
100
AcDbEntity
  8
VISIBLE
100
AcDbVertex
100
AcDb3dPolylineVertex
 10
-15.10404963581821
 20
-19.55405546397346
 30
0.0
 70
    32
  0
VERTEX
  5
10000128
330
F47DC
100
AcDbEntity
  8
VISIBLE
100
AcDbVertex
100
AcDb3dPolylineVertex
 10
-15.16896443664453
 20
-19.57029397992613
 30
0.0
 70
    32
  0
VERTEX
  5
10000129
330
F47DC
100
AcDbEntity
  8
VISIBLE
100
AcDbVertex
100
AcDb3dPolylineVertex
 10
-15.20615092330021
 20
-19.6058364459654
 30
0.0
 70
    32
  0
SEQEND
  5
1000012C
330
F47DC
100
AcDbEntity
  8
VISIBLE
  0
POLYLINE
  5
F47DD
102
{ACAD_XDICTIONARY
360
10000130
102
}
330
1F
100
AcDbEntity
  8
VISIBLE
100
AcDb3dPolyline
 66
     1
 10
0.0
 20
0.0
 30
0.0
 70
     8
  0
VERTEX
  5
1000012D
330
F47DD
100
AcDbEntity
  8
VISIBLE
100
AcDbVertex
100
AcDb3dPolylineVertex
 10
-14.99113934222223
 20
-19.59948250318219
 30
0.0
 70
    32
  0
VERTEX
  5
1000012E
330
F47DD
100
AcDbEntity
  8
VISIBLE
100
AcDbVertex
100
AcDb3dPolylineVertex
 10
-15.04396768769309
 20
-19.56285013876427
 30
0.0
 70
    32
  0
VERTEX
  5
1000012F
330
F47DD
100
AcDbEntity
  8
VISIBLE
100
AcDbVertex
100
AcDb3dPolylineVertex
 10
-15.10404963581821
 20
-19.55405546397346
 30
0.0
 70
    32
  0
SEQEND
  5
10000132
330
F47DD
100
AcDbEntity
  8
VISIBLE
  0
POLYLINE
  5
F47DE
102
{ACAD_XDICTIONARY
360
10000136
102
}
330
1F
100
AcDbEntity
  8
VISIBLE
100
AcDb3dPolyline
 66
     1
 10
0.0
 20
0.0
 30
0.0
 70
     8
  0
VERTEX
  5
10000133
330
F47DE
100
AcDbEntity
  8
VISIBLE
100
AcDbVertex
100
AcDb3dPolylineVertex
 10
-14.95579097087653
 20
-19.7512467917284
 30
0.0
 70
    32
  0
VERTEX
  5
10000134
330
F47DE
100
AcDbEntity
  8
VISIBLE
100
AcDbVertex
100
AcDb3dPolylineVertex
 10
-14.96687622013054
 20
-19.6512505143668
 30
0.0
 70
    32
  0
VERTEX
  5
10000135
330
F47DE
100
AcDbEntity
  8
VISIBLE
100
AcDbVertex
100
AcDb3dPolylineVertex
 10
-14.99113934222223
 20
-19.59948250318219
 30
0.0
 70
    32
  0
SEQEND
  5
10000138
330
F47DE
100
AcDbEntity
  8
VISIBLE
  0
LINE
  5
F47DF
102
{ACAD_XDICTIONARY
360
10000139
102
}
330
1F
100
AcDbEntity
  8
VISIBLE
100
AcDbLine
 10
-14.95579097087653
 20
-19.76716816559899
 30
0.0
 11
-14.95579097087653
 21
-19.7512467917284
 31
0.0
  0
POLYLINE
  5
F47E0
102
{ACAD_XDICTIONARY
360
10000141
102
}
330
1F
100
AcDbEntity
  8
VISIBLE
100
AcDb3dPolyline
 66
     1
 10
0.0
 20
0.0
 30
0.0
 70
     8
  0
VERTEX
  5
1000013E
330
F47E0
100
AcDbEntity
  8
VISIBLE
100
AcDbVertex
100
AcDb3dPolylineVertex
 10
-14.99070113927166
 20
-19.90344928322518
 30
0.0
 70
    32
  0
VERTEX
  5
1000013F
330
F47E0
100
AcDbEntity
  8
VISIBLE
100
AcDbVertex
100
AcDb3dPolylineVertex
 10
-14.96254957947783
 20
-19.83990868685182
 30
0.0
 70
    32
  0
VERTEX
  5
10000140
330
F47E0
100
AcDbEntity
  8
VISIBLE
100
AcDbVertex
100
AcDb3dPolylineVertex
 10
-14.95579097087653
 20
-19.76716816559899
 30
0.0
 70
    32
  0
SEQEND
  5
10000143
330
F47E0
100
AcDbEntity
  8
VISIBLE
  0
POLYLINE
  5
F47E1
102
{ACAD_XDICTIONARY
360
10000147
102
}
330
1F
100
AcDbEntity
  8
VISIBLE
100
AcDb3dPolyline
 66
     1
 10
0.0
 20
0.0
 30
0.0
 70
     8
  0
VERTEX
  5
10000144
330
F47E1
100
AcDbEntity
  8
VISIBLE
100
AcDbVertex
100
AcDb3dPolylineVertex
 10
-15.10317322991707
 20
-19.94566283412975
 30
0.0
 70
    32
  0
VERTEX
  5
10000145
330
F47E1
100
AcDbEntity
  8
VISIBLE
100
AcDbVertex
100
AcDb3dPolylineVertex
 10
-15.02967946700573
 20
-19.93242466456607
 30
0.0
 70
    32
  0
VERTEX
  5
10000146
330
F47E1
100
AcDbEntity
  8
VISIBLE
100
AcDbVertex
100
AcDb3dPolylineVertex
 10
-14.99070113927166
 20
-19.90344928322518
 30
0.0
 70
    32
  0
SEQEND
  5
10000149
330
F47E1
100
AcDbEntity
  8
VISIBLE
  0
LINE
  5
F47E2
102
{ACAD_XDICTIONARY
360
1000014A
102
}
330
1F
100
AcDbEntity
  8
VISIBLE
100
AcDbLine
 10
-14.94162240880821
 20
-20.0
 30
0.0
 11
-14.95170107667124
 21
-19.93295494856332
 31
0.0
  0
LINE
  5
F47E3
102
{ACAD_XDICTIONARY
360
1000014C
102
}
330
1F
100
AcDbEntity
  8
VISIBLE
100
AcDbLine
 10
-14.87998186042852
 20
-20.0
 30
0.0
 11
-14.94162240880821
 21
-20.0
 31
0.0
  0
LINE
  5
F47E4
102
{ACAD_XDICTIONARY
360
1000014E
102
}
330
1F
100
AcDbEntity
  8
VISIBLE
100
AcDbLine
 10
-14.87998186042852
 20
-19.28967301713165
 30
0.0
 11
-14.87998186042852
 21
-20.0
 31
0.0
  0
POLYLINE
  5
F47E5
102
{ACAD_XDICTIONARY
360
10000153
102
}
330
1F
100
AcDbEntity
  8
VISIBLE
100
AcDb3dPolyline
 66
     1
 10
0.0
 20
0.0
 30
0.0
 70
     8
  0
VERTEX
  5
10000150
330
F47E5
100
AcDbEntity
  8
VISIBLE
100
AcDbVertex
100
AcDb3dPolylineVertex
 10
-15.71234836502965
 20
-19.50293178640736
 30
0.0
 70
    32
  0
VERTEX
  5
10000151
330
F47E5
100
AcDbEntity
  8
VISIBLE
100
AcDbVertex
100
AcDb3dPolylineVertex
 10
-15.66290972387613
 20
-19.4937442480646
 30
0.0
 70
    32
  0
VERTEX
  5
10000152
330
F47E5
100
AcDbEntity
  8
VISIBLE
100
AcDbVertex
100
AcDb3dPolylineVertex
 10
-15.6239044028403
 20
-19.49153850969263
 30
0.0
 70
    32
  0
SEQEND
  5
10000155
330
F47E5
100
AcDbEntity
  8
VISIBLE
  0
POLYLINE
  5
F47E6
102
{ACAD_XDICTIONARY
360
10000159
102
}
330
1F
100
AcDbEntity
  8
VISIBLE
100
AcDb3dPolyline
 66
     1
 10
0.0
 20
0.0
 30
0.0
 70
     8
  0
VERTEX
  5
10000156
330
F47E6
100
AcDbEntity
  8
VISIBLE
100
AcDbVertex
100
AcDb3dPolylineVertex
 10
-15.79334287705937
 20
-19.53433633119796
 30
0.0
 70
    32
  0
VERTEX
  5
10000157
330
F47E6
100
AcDbEntity
  8
VISIBLE
100
AcDbVertex
100
AcDb3dPolylineVertex
 10
-15.74973151716954
 20
-19.51462631304384
 30
0.0
 70
    32
  0
VERTEX
  5
10000158
330
F47E6
100
AcDbEntity
  8
VISIBLE
100
AcDbVertex
100
AcDb3dPolylineVertex
 10
-15.71234836502965
 20
-19.50293178640736
 30
0.0
 70
    32
  0
SEQEND
  5
1000015B
330
F47E6
100
AcDbEntity
  8
VISIBLE
  0
LINE
  5
F47E7
102
{ACAD_XDICTIONARY
360
1000015C
102
}
330
1F
100
AcDbEntity
  8
VISIBLE
100
AcDbLine
 10
-15.76997205302915
 20
-19.59232518832293
 30
0.0
 11
-15.79334287705937
 21
-19.53433633119796
 31
0.0
  0
POLYLINE
  5
F47E8
102
{ACAD_XDICTIONARY
360
10000164
102
}
330
1F
100
AcDbEntity
  8
VISIBLE
100
AcDb3dPolyline
 66
     1
 10
0.0
 20
0.0
 30
0.0
 70
     8
  0
VERTEX
  5
10000161
330
F47E8
100
AcDbEntity
  8
VISIBLE
100
AcDbVertex
100
AcDb3dPolylineVertex
 10
-15.62857856764635
 20
-19.55405546397346
 30
0.0
 70
    32
  0
VERTEX
  5
10000162
330
F47E8
100
AcDbEntity
  8
VISIBLE
100
AcDbVertex
100
AcDb3dPolylineVertex
 10
-15.70372791973199
 20
-19.56605684952945
 30
0.0
 70
    32
  0
VERTEX
  5
10000163
330
F47E8
100
AcDbEntity
  8
VISIBLE
100
AcDbVertex
100
AcDb3dPolylineVertex
 10
-15.76997205302915
 20
-19.59232518832293
 30
0.0
 70
    32
  0
SEQEND
  5
10000166
330
F47E8
100
AcDbEntity
  8
VISIBLE
  0
POLYLINE
  5
F47E9
102
{ACAD_XDICTIONARY
360
1000016A
102
}
330
1F
100
AcDbEntity
  8
VISIBLE
100
AcDb3dPolyline
 66
     1
 10
0.0
 20
0.0
 30
0.0
 70
     8
  0
VERTEX
  5
10000167
330
F47E9
100
AcDbEntity
  8
VISIBLE
100
AcDbVertex
100
AcDb3dPolylineVertex
 10
-15.54751102179154
 20
-19.58210045280972
 30
0.0
 70
    32
  0
VERTEX
  5
10000168
330
F47E9
100
AcDbEntity
  8
VISIBLE
100
AcDbVertex
100
AcDb3dPolylineVertex
 10
-15.58538671404787
 20
-19.55948497381216
 30
0.0
 70
    32
  0
VERTEX
  5
10000169
330
F47E9
100
AcDbEntity
  8
VISIBLE
100
AcDbVertex
100
AcDb3dPolylineVertex
 10
-15.62857856764635
 20
-19.55405546397346
 30
0.0
 70
    32
  0
SEQEND
  5
1000016C
330
F47E9
100
AcDbEntity
  8
VISIBLE
  0
POLYLINE
  5
F47EA
102
{ACAD_XDICTIONARY
360
10000170
102
}
330
1F
100
AcDbEntity
  8
VISIBLE
100
AcDb3dPolyline
 66
     1
 10
0.0
 20
0.0
 30
0.0
 70
     8
  0
VERTEX
  5
1000016D
330
F47EA
100
AcDbEntity
  8
VISIBLE
100
AcDbVertex
100
AcDb3dPolylineVertex
 10
-15.52224131830887
 20
-19.66901070467208
 30
0.0
 70
    32
  0
VERTEX
  5
1000016E
330
F47EA
100
AcDbEntity
  8
VISIBLE
100
AcDbVertex
100
AcDb3dPolylineVertex
 10
-15.53016589732103
 20
-19.61274684806878
 30
0.0
 70
    32
  0
VERTEX
  5
1000016F
330
F47EA
100
AcDbEntity
  8
VISIBLE
100
AcDbVertex
100
AcDb3dPolylineVertex
 10
-15.54751102179154
 20
-19.58210045280972
 30
0.0
 70
    32
  0
SEQEND
  5
10000172
330
F47EA
100
AcDbEntity
  8
VISIBLE
  0
LINE
  5
F47EB
102
{ACAD_XDICTIONARY
360
10000173
102
}
330
1F
100
AcDbEntity
  8
VISIBLE
100
AcDbLine
 10
-15.52224131830887
 20
-19.7001231141623
 30
0.0
 11
-15.52224131830887
 21
-19.66901070467208
 31
0.0
  0
LINE
  5
F47EC
102
{ACAD_XDICTIONARY
360
10000178
102
}
330
1F
100
AcDbEntity
  8
VISIBLE
100
AcDbLine
 10
-15.60710662306859
 20
-19.70289839951589
 30
0.0
 11
-15.52224131830887
 21
-19.7001231141623
 31
0.0
  0
POLYLINE
  5
F47ED
102
{ACAD_XDICTIONARY
360
10000180
102
}
330
1F
100
AcDbEntity
  8
VISIBLE
100
AcDb3dPolyline
 66
     1
 10
0.0
 20
0.0
 30
0.0
 70
     8
  0
VERTEX
  5
1000017D
330
F47ED
100
AcDbEntity
  8
VISIBLE
100
AcDbVertex
100
AcDb3dPolylineVertex
 10
-15.84943285473188
 20
-19.86167393527117
 30
0.0
 70
    32
  0
VERTEX
  5
1000017E
330
F47ED
100
AcDbEntity
  8
VISIBLE
100
AcDbVertex
100
AcDb3dPolylineVertex
 10
-15.77343934848227
 20
-19.73723645013876
 30
0.0
 70
    32
  0
VERTEX
  5
1000017F
330
F47ED
100
AcDbEntity
  8
VISIBLE
100
AcDbVertex
100
AcDb3dPolylineVertex
 10
-15.60710662306859
 20
-19.70289839951589
 30
0.0
 70
    32
  0
SEQEND
  5
10000182
330
F47ED
100
AcDbEntity
  8
VISIBLE
  0
POLYLINE
  5
F47EE
102
{ACAD_XDICTIONARY
360
10000186
102
}
330
1F
100
AcDbEntity
  8
VISIBLE
100
AcDb3dPolyline
 66
     1
 10
0.0
 20
0.0
 30
0.0
 70
     8
  0
VERTEX
  5
10000183
330
F47EE
100
AcDbEntity
  8
VISIBLE
100
AcDbVertex
100
AcDb3dPolylineVertex
 10
-15.8072193038273
 20
-19.97078646996223
 30
0.0
 70
    32
  0
VERTEX
  5
10000184
330
F47EE
100
AcDbEntity
  8
VISIBLE
100
AcDbVertex
100
AcDb3dPolylineVertex
 10
-15.84126031127676
 20
-19.91763747678568
 30
0.0
 70
    32
  0
VERTEX
  5
10000185
330
F47EE
100
AcDbEntity
  8
VISIBLE
100
AcDbVertex
100
AcDb3dPolylineVertex
 10
-15.84943285473188
 20
-19.86167393527117
 30
0.0
 70
    32
  0
SEQEND
  5
10000188
330
F47EE
100
AcDbEntity
  8
VISIBLE
  0
POLYLINE
  5
F47EF
102
{ACAD_XDICTIONARY
360
1000018C
102
}
330
1F
100
AcDbEntity
  8
VISIBLE
100
AcDb3dPolyline
 66
     1
 10
0.0
 20
0.0
 30
0.0
 70
     8
  0
VERTEX
  5
10000189
330
F47EF
100
AcDbEntity
  8
VISIBLE
100
AcDbVertex
100
AcDb3dPolylineVertex
 10
-15.6906573189766
 20
-20.0092022619619
 30
0.0
 70
    32
  0
VERTEX
  5
1000018A
330
F47EF
100
AcDbEntity
  8
VISIBLE
100
AcDbVertex
100
AcDb3dPolylineVertex
 10
-15.76385006567443
 20
-19.9971550695908
 30
0.0
 70
    32
  0
VERTEX
  5
1000018B
330
F47EF
100
AcDbEntity
  8
VISIBLE
100
AcDbVertex
100
AcDb3dPolylineVertex
 10
-15.8072193038273
 20
-19.97078646996223
 30
0.0
 70
    32
  0
SEQEND
  5
1000018E
330
F47EF
100
AcDbEntity
  8
VISIBLE
  0
POLYLINE
  5
F47F0
102
{ACAD_XDICTIONARY
360
10000192
102
}
330
1F
100
AcDbEntity
  8
VISIBLE
100
AcDb3dPolyline
 66
     1
 10
0.0
 20
0.0
 30
0.0
 70
     8
  0
VERTEX
  5
1000018F
330
F47F0
100
AcDbEntity
  8
VISIBLE
100
AcDbVertex
100
AcDb3dPolylineVertex
 10
-15.59768525963141
 20
-19.99247751601527
 30
0.0
 70
    32
  0
VERTEX
  5
10000190
330
F47F0
100
AcDbEntity
  8
VISIBLE
100
AcDbVertex
100
AcDb3dPolylineVertex
 10
-15.64516075156638
 20
-20.00596435114663
 30
0.0
 70
    32
  0
VERTEX
  5
10000191
330
F47F0
100
AcDbEntity
  8
VISIBLE
100
AcDbVertex
100
AcDb3dPolylineVertex
 10
-15.6906573189766
 20
-20.0092022619619
 30
0.0
 70
    32
  0
SEQEND
  5
10000194
330
F47F0
100
AcDbEntity
  8
VISIBLE
  0
POLYLINE
  5
F47F1
102
{ACAD_XDICTIONARY
360
10000198
102
}
330
1F
100
AcDbEntity
  8
VISIBLE
100
AcDb3dPolyline
 66
     1
 10
0.0
 20
0.0
 30
0.0
 70
     8
  0
VERTEX
  5
10000195
330
F47F1
100
AcDbEntity
  8
VISIBLE
100
AcDbVertex
100
AcDb3dPolylineVertex
 10
-16.06123094750571
 20
-19.56997683784404
 30
0.0
 70
    32
  0
VERTEX
  5
10000196
330
F47F1
100
AcDbEntity
  8
VISIBLE
100
AcDbVertex
100
AcDb3dPolylineVertex
 10
-16.05921544764134
 20
-19.48316637940029
 30
0.0
 70
    32
  0
VERTEX
  5
10000197
330
F47F1
100
AcDbEntity
  8
VISIBLE
100
AcDbVertex
100
AcDb3dPolylineVertex
 10
-16.0548039708974
 20
-19.40930242263631
 30
0.0
 70
    32
  0
SEQEND
  5
1000019A
330
F47F1
100
AcDbEntity
  8
VISIBLE
  0
LINE
  5
F47F2
102
{ACAD_XDICTIONARY
360
1000019B
102
}
330
1F
100
AcDbEntity
  8
VISIBLE
100
AcDbLine
 10
-16.06123094750571
 20
-20.0
 30
0.0
 11
-16.06123094750571
 21
-19.56997683784405
 31
0.0
  0
LINE
  5
F47F3
102
{ACAD_XDICTIONARY
360
100001A0
102
}
330
1F
100
AcDbEntity
  8
VISIBLE
100
AcDbLine
 10
-15.98366902525543
 20
-20.0
 30
0.0
 11
-16.06123094750571
 21
-20.0
 31
0.0
  0
LINE
  5
F47F4
102
{ACAD_XDICTIONARY
360
100001A5
102
}
330
1F
100
AcDbEntity
  8
VISIBLE
100
AcDbLine
 10
-15.98366902525543
 20
-19.33261690628717
 30
0.0
 11
-15.98366902525543
 21
-20.0
 31
0.0
  0
LINE
  5
F47F5
102
{ACAD_XDICTIONARY
360
100001AA
102
}
330
1F
100
AcDbEntity
  8
VISIBLE
100
AcDbLine
 10
-16.0548039708974
 20
-19.40930242263631
 30
0.0
 11
-16.05845566215212
 21
-19.40930242263631
 31
0.0
  0
LINE
  5
F47F6
102
{ACAD_XDICTIONARY
360
100001AF
102
}
330
1F
100
AcDbEntity
  8
VISIBLE
100
AcDbLine
 10
-16.05845566215212
 20
-19.40930242263631
 30
0.0
 11
-16.28675939939729
 21
-20.0
 31
0.0
  0
LINE
  5
F47F7
102
{ACAD_XDICTIONARY
360
100001B4
102
}
330
1F
100
AcDbEntity
  8
VISIBLE
100
AcDbLine
 10
-16.28675939939728
 20
-20.0
 30
0.0
 11
-16.34927635367811
 21
-20.0
 31
0.0
  0
LINE
  5
F47F8
102
{ACAD_XDICTIONARY
360
100001B9
102
}
330
1F
100
AcDbEntity
  8
VISIBLE
100
AcDbLine
 10
-15.50442106498583
 20
-20.0
 30
0.0
 11
-15.51946603295528
 21
-19.92871898670784
 31
0.0
  0
LINE
  5
F47F9
102
{ACAD_XDICTIONARY
360
100001BE
102
}
330
1F
100
AcDbEntity
  8
VISIBLE
100
AcDbLine
 10
-15.51946603295528
 20
-19.92871898670784
 30
0.0
 11
-15.52311772421
 21
-19.92871898670784
 31
0.0
  0
POLYLINE
  5
F47FA
102
{ACAD_XDICTIONARY
360
100001C6
102
}
330
1F
100
AcDbEntity
  8
VISIBLE
100
AcDb3dPolyline
 66
     1
 10
0.0
 20
0.0
 30
0.0
 70
     8
  0
VERTEX
  5
100001C3
330
F47FA
100
AcDbEntity
  8
VISIBLE
100
AcDbVertex
100
AcDb3dPolylineVertex
 10
-15.52311772421
 20
-19.92871898670784
 30
0.0
 70
    32
  0
VERTEX
  5
100001C4
330
F47FA
100
AcDbEntity
  8
VISIBLE
100
AcDbVertex
100
AcDb3dPolylineVertex
 10
-15.5649295306495
 20
-19.97189190993886
 30
0.0
 70
    32
  0
VERTEX
  5
100001C5
330
F47FA
100
AcDbEntity
  8
VISIBLE
100
AcDbVertex
100
AcDb3dPolylineVertex
 10
-15.59768525963141
 20
-19.99247751601527
 30
0.0
 70
    32
  0
SEQEND
  5
100001C8
330
F47FA
100
AcDbEntity
  8
VISIBLE
  0
POLYLINE
  5
F47FB
102
{ACAD_XDICTIONARY
360
100001CC
102
}
330
1F
100
AcDbEntity
  8
VISIBLE
100
AcDb3dPolyline
 66
     1
 10
0.0
 20
0.0
 30
0.0
 70
     8
  0
VERTEX
  5
100001C9
330
F47FB
100
AcDbEntity
  8
VISIBLE
100
AcDbVertex
100
AcDb3dPolylineVertex
 10
-15.6239044028403
 20
-19.49153850969263
 30
0.0
 70
    32
  0
VERTEX
  5
100001CA
330
F47FB
100
AcDbEntity
  8
VISIBLE
100
AcDbVertex
100
AcDb3dPolylineVertex
 10
-15.53828164967377
 20
-19.50397505999207
 30
0.0
 70
    32
  0
VERTEX
  5
100001CB
330
F47FB
100
AcDbEntity
  8
VISIBLE
100
AcDbVertex
100
AcDb3dPolylineVertex
 10
-15.49134801029393
 20
-19.5311958767189
 30
0.0
 70
    32
  0
SEQEND
  5
100001CE
330
F47FB
100
AcDbEntity
  8
VISIBLE
  0
POLYLINE
  5
F47FC
102
{ACAD_XDICTIONARY
360
100001D2
102
}
330
1F
100
AcDbEntity
  8
VISIBLE
100
AcDb3dPolyline
 66
     1
 10
0.0
 20
0.0
 30
0.0
 70
     8
  0
VERTEX
  5
100001CF
330
F47FC
100
AcDbEntity
  8
VISIBLE
100
AcDbVertex
100
AcDb3dPolylineVertex
 10
-15.49134801029393
 20
-19.5311958767189
 30
0.0
 70
    32
  0
VERTEX
  5
100001D0
330
F47FC
100
AcDbEntity
  8
VISIBLE
100
AcDbVertex
100
AcDb3dPolylineVertex
 10
-15.45654137464925
 20
-19.59065966654842
 30
0.0
 70
    32
  0
VERTEX
  5
100001D1
330
F47FC
100
AcDbEntity
  8
VISIBLE
100
AcDbVertex
100
AcDb3dPolylineVertex
 10
-15.44818501966312
 20
-19.65849383385848
 30
0.0
 70
    32
  0
SEQEND
  5
100001D4
330
F47FC
100
AcDbEntity
  8
VISIBLE
  0
LINE
  5
F47FD
102
{ACAD_XDICTIONARY
360
100001D5
102
}
330
1F
100
AcDbEntity
  8
VISIBLE
100
AcDbLine
 10
-15.44818501966312
 20
-19.65849383385848
 30
0.0
 11
-15.44818501966312
 21
-20.0
 31
0.0
  0
LINE
  5
F47FE
102
{ACAD_XDICTIONARY
360
100001DA
102
}
330
1F
100
AcDbEntity
  8
VISIBLE
100
AcDbLine
 10
-15.44818501966312
 20
-20.0
 30
0.0
 11
-15.50442106498583
 21
-20.0
 31
0.0
  0
POLYLINE
  5
F47FF
102
{ACAD_XDICTIONARY
360
100001E2
102
}
330
1F
100
AcDbEntity
  8
VISIBLE
100
AcDb3dPolyline
 66
     1
 10
0.0
 20
0.0
 30
0.0
 70
     8
  0
VERTEX
  5
100001DF
330
F47FF
100
AcDbEntity
  8
VISIBLE
100
AcDbVertex
100
AcDb3dPolylineVertex
 10
-15.67561235100716
 20
-19.94653924003088
 30
0.0
 70
    32
  0
VERTEX
  5
100001E0
330
F47FF
100
AcDbEntity
  8
VISIBLE
100
AcDbVertex
100
AcDb3dPolylineVertex
 10
-15.60581912437277
 20
-19.93437753062204
 30
0.0
 70
    32
  0
VERTEX
  5
100001E1
330
F47FF
100
AcDbEntity
  8
VISIBLE
100
AcDbVertex
100
AcDb3dPolylineVertex
 10
-15.56438183538835
 20
-19.90775827890575
 30
0.0
 70
    32
  0
SEQEND
  5
100001E4
330
F47FF
100
AcDbEntity
  8
VISIBLE
  0
POLYLINE
  5
F4800
102
{ACAD_XDICTIONARY
360
100001E8
102
}
330
1F
100
AcDbEntity
  8
VISIBLE
100
AcDb3dPolyline
 66
     1
 10
0.0
 20
0.0
 30
0.0
 70
     8
  0
VERTEX
  5
100001E5
330
F4800
100
AcDbEntity
  8
VISIBLE
100
AcDbVertex
100
AcDb3dPolylineVertex
 10
-15.56438183538835
 20
-19.90775827890575
 30
0.0
 70
    32
  0
VERTEX
  5
100001E6
330
F4800
100
AcDbEntity
  8
VISIBLE
100
AcDbVertex
100
AcDb3dPolylineVertex
 10
-15.53181318985281
 20
-19.85458965423701
 30
0.0
 70
    32
  0
VERTEX
  5
100001E7
330
F4800
100
AcDbEntity
  8
VISIBLE
100
AcDbVertex
100
AcDb3dPolylineVertex
 10
-15.52399413011113
 20
-19.79915698099034
 30
0.0
 70
    32
  0
SEQEND
  5
100001EA
330
F4800
100
AcDbEntity
  8
VISIBLE
  0
LINE
  5
F4801
102
{ACAD_XDICTIONARY
360
100001EB
102
}
330
1F
100
AcDbEntity
  8
VISIBLE
100
AcDbLine
 10
-15.52399413011113
 20
-19.79915698099034
 30
0.0
 11
-15.52399413011113
 21
-19.75402207708199
 31
0.0
  0
LINE
  5
F4802
102
{ACAD_XDICTIONARY
360
100001F0
102
}
330
1F
100
AcDbEntity
  8
VISIBLE
100
AcDbLine
 10
-15.52399413011113
 20
-19.75402207708198
 30
0.0
 11
-15.59980324055915
 21
-19.75708949773595
 31
0.0
  0
POLYLINE
  5
F4803
102
{ACAD_XDICTIONARY
360
100001F8
102
}
330
1F
100
AcDbEntity
  8
VISIBLE
100
AcDb3dPolyline
 66
     1
 10
0.0
 20
0.0
 30
0.0
 70
     8
  0
VERTEX
  5
100001F5
330
F4803
100
AcDbEntity
  8
VISIBLE
100
AcDbVertex
100
AcDb3dPolylineVertex
 10
-15.59980324055915
 20
-19.75708949773595
 30
0.0
 70
    32
  0
VERTEX
  5
100001F6
330
F4803
100
AcDbEntity
  8
VISIBLE
100
AcDbVertex
100
AcDb3dPolylineVertex
 10
-15.68521986305774
 20
-19.76749091667884
 30
0.0
 70
    32
  0
VERTEX
  5
100001F7
330
F4803
100
AcDbEntity
  8
VISIBLE
100
AcDbVertex
100
AcDb3dPolylineVertex
 10
-15.73009558452759
 20
-19.7852075203973
 30
0.0
 70
    32
  0
SEQEND
  5
100001FA
330
F4803
100
AcDbEntity
  8
VISIBLE
  0
POLYLINE
  5
F4804
102
{ACAD_XDICTIONARY
360
100001FE
102
}
330
1F
100
AcDbEntity
  8
VISIBLE
100
AcDb3dPolyline
 66
     1
 10
0.0
 20
0.0
 30
0.0
 70
     8
  0
VERTEX
  5
100001FB
330
F4804
100
AcDbEntity
  8
VISIBLE
100
AcDbVertex
100
AcDb3dPolylineVertex
 10
-15.73009558452759
 20
-19.7852075203973
 30
0.0
 70
    32
  0
VERTEX
  5
100001FC
330
F4804
100
AcDbEntity
  8
VISIBLE
100
AcDbVertex
100
AcDb3dPolylineVertex
 10
-15.76225196872725
 20
-19.82173518352357
 30
0.0
 70
    32
  0
VERTEX
  5
100001FD
330
F4804
100
AcDbEntity
  8
VISIBLE
100
AcDbVertex
100
AcDb3dPolylineVertex
 10
-15.76997205302915
 20
-19.8625503411723
 30
0.0
 70
    32
  0
SEQEND
  5
10000200
330
F4804
100
AcDbEntity
  8
VISIBLE
  0
POLYLINE
  5
F4805
102
{ACAD_XDICTIONARY
360
10000204
102
}
330
1F
100
AcDbEntity
  8
VISIBLE
100
AcDb3dPolyline
 66
     1
 10
0.0
 20
0.0
 30
0.0
 70
     8
  0
VERTEX
  5
10000201
330
F4805
100
AcDbEntity
  8
VISIBLE
100
AcDbVertex
100
AcDb3dPolylineVertex
 10
-15.76997205302915
 20
-19.8625503411723
 30
0.0
 70
    32
  0
VERTEX
  5
10000202
330
F4805
100
AcDbEntity
  8
VISIBLE
100
AcDbVertex
100
AcDb3dPolylineVertex
 10
-15.76218489446228
 20
-19.902477524362
 30
0.0
 70
    32
  0
VERTEX
  5
10000203
330
F4805
100
AcDbEntity
  8
VISIBLE
100
AcDbVertex
100
AcDb3dPolylineVertex
 10
-15.74514055249705
 20
-19.92514032927822
 30
0.0
 70
    32
  0
SEQEND
  5
10000206
330
F4805
100
AcDbEntity
  8
VISIBLE
  0
POLYLINE
  5
F4806
102
{ACAD_XDICTIONARY
360
1000020A
102
}
330
1F
100
AcDbEntity
  8
VISIBLE
100
AcDb3dPolyline
 66
     1
 10
0.0
 20
0.0
 30
0.0
 70
     8
  0
VERTEX
  5
10000207
330
F4806
100
AcDbEntity
  8
VISIBLE
100
AcDbVertex
100
AcDb3dPolylineVertex
 10
-15.74514055249705
 20
-19.92514032927822
 30
0.0
 70
    32
  0
VERTEX
  5
10000208
330
F4806
100
AcDbEntity
  8
VISIBLE
100
AcDbVertex
100
AcDb3dPolylineVertex
 10
-15.7110995450476
 20
-19.94239641090917
 30
0.0
 70
    32
  0
VERTEX
  5
10000209
330
F4806
100
AcDbEntity
  8
VISIBLE
100
AcDbVertex
100
AcDb3dPolylineVertex
 10
-15.67561235100716
 20
-19.94653924003088
 30
0.0
 70
    32
  0
SEQEND
  5
1000020C
330
F4806
100
AcDbEntity
  8
VISIBLE
  0
LINE
  5
F4807
102
{ACAD_XDICTIONARY
360
1000020D
102
}
330
1F
100
AcDbEntity
  8
VISIBLE
100
AcDbLine
 10
-14.95170107667124
 20
-19.93295494856332
 30
0.0
 11
-14.95579097087653
 21
-19.93295494856332
 31
0.0
  0
POLYLINE
  5
F4808
102
{ACAD_XDICTIONARY
360
10000212
102
}
330
1F
100
AcDbEntity
  8
VISIBLE
100
AcDb3dPolyline
 66
     1
 10
0.0
 20
0.0
 30
0.0
 70
     8
  0
VERTEX
  5
1000020F
330
F4808
100
AcDbEntity
  8
VISIBLE
100
AcDbVertex
100
AcDb3dPolylineVertex
 10
-14.95579097087653
 20
-19.93295494856332
 30
0.0
 70
    32
  0
VERTEX
  5
10000210
330
F4808
100
AcDbEntity
  8
VISIBLE
100
AcDbVertex
100
AcDb3dPolylineVertex
 10
-15.03087488465488
 20
-19.99444078208793
 30
0.0
 70
    32
  0
VERTEX
  5
10000211
330
F4808
100
AcDbEntity
  8
VISIBLE
100
AcDbVertex
100
AcDb3dPolylineVertex
 10
-15.11281369482954
 20
-20.0092022619619
 30
0.0
 70
    32
  0
SEQEND
  5
10000214
330
F4808
100
AcDbEntity
  8
VISIBLE
  0
POLYLINE
  5
F4809
102
{ACAD_XDICTIONARY
360
10000218
102
}
330
1F
100
AcDbEntity
  8
VISIBLE
100
AcDb3dPolyline
 66
     1
 10
0.0
 20
0.0
 30
0.0
 70
     8
  0
VERTEX
  5
10000215
330
F4809
100
AcDbEntity
  8
VISIBLE
100
AcDbVertex
100
AcDb3dPolylineVertex
 10
-15.11281369482954
 20
-20.0092022619619
 30
0.0
 70
    32
  0
VERTEX
  5
10000216
330
F4809
100
AcDbEntity
  8
VISIBLE
100
AcDbVertex
100
AcDb3dPolylineVertex
 10
-15.20907671676055
 20
-19.9881540304238
 30
0.0
 70
    32
  0
VERTEX
  5
10000217
330
F4809
100
AcDbEntity
  8
VISIBLE
100
AcDbVertex
100
AcDb3dPolylineVertex
 10
-15.26552742310197
 20
-19.94208417670012
 30
0.0
 70
    32
  0
SEQEND
  5
1000021A
330
F4809
100
AcDbEntity
  8
VISIBLE
  0
POLYLINE
  5
F480A
102
{ACAD_XDICTIONARY
360
1000021E
102
}
330
1F
100
AcDbEntity
  8
VISIBLE
100
AcDb3dPolyline
 66
     1
 10
0.0
 20
0.0
 30
0.0
 70
     8
  0
VERTEX
  5
1000021B
330
F480A
100
AcDbEntity
  8
VISIBLE
100
AcDbVertex
100
AcDb3dPolylineVertex
 10
-15.26552742310197
 20
-19.94208417670012
 30
0.0
 70
    32
  0
VERTEX
  5
1000021C
330
F480A
100
AcDbEntity
  8
VISIBLE
100
AcDbVertex
100
AcDb3dPolylineVertex
 10
-15.30952159708941
 20
-19.84916178035599
 30
0.0
 70
    32
  0
VERTEX
  5
1000021D
330
F480A
100
AcDbEntity
  8
VISIBLE
100
AcDbVertex
100
AcDb3dPolylineVertex
 10
-15.32008369044751
 20
-19.7512467917284
 30
0.0
 70
    32
  0
SEQEND
  5
10000220
330
F480A
100
AcDbEntity
  8
VISIBLE
  0
POLYLINE
  5
F480B
102
{ACAD_XDICTIONARY
360
10000224
102
}
330
1F
100
AcDbEntity
  8
VISIBLE
100
AcDb3dPolyline
 66
     1
 10
0.0
 20
0.0
 30
0.0
 70
     8
  0
VERTEX
  5
10000221
330
F480B
100
AcDbEntity
  8
VISIBLE
100
AcDbVertex
100
AcDb3dPolylineVertex
 10
-15.32008369044751
 20
-19.7512467917284
 30
0.0
 70
    32
  0
VERTEX
  5
10000222
330
F480B
100
AcDbEntity
  8
VISIBLE
100
AcDbVertex
100
AcDb3dPolylineVertex
 10
-15.3029061347853
 20
-19.62999615216076
 30
0.0
 70
    32
  0
VERTEX
  5
10000223
330
F480B
100
AcDbEntity
  8
VISIBLE
100
AcDbVertex
100
AcDb3dPolylineVertex
 10
-15.26530832162669
 20
-19.55902176407988
 30
0.0
 70
    32
  0
SEQEND
  5
10000226
330
F480B
100
AcDbEntity
  8
VISIBLE
  0
POLYLINE
  5
F480C
102
{ACAD_XDICTIONARY
360
1000022A
102
}
330
1F
100
AcDbEntity
  8
VISIBLE
100
AcDb3dPolyline
 66
     1
 10
0.0
 20
0.0
 30
0.0
 70
     8
  0
VERTEX
  5
10000227
330
F480C
100
AcDbEntity
  8
VISIBLE
100
AcDbVertex
100
AcDb3dPolylineVertex
 10
-15.26530832162669
 20
-19.55902176407988
 30
0.0
 70
    32
  0
VERTEX
  5
10000228
330
F480C
100
AcDbEntity
  8
VISIBLE
100
AcDbVertex
100
AcDb3dPolylineVertex
 10
-15.1904927049082
 20
-19.50377874507022
 30
0.0
 70
    32
  0
VERTEX
  5
10000229
330
F480C
100
AcDbEntity
  8
VISIBLE
100
AcDbVertex
100
AcDb3dPolylineVertex
 10
-15.11281369482954
 20
-19.49051603614131
 30
0.0
 70
    32
  0
SEQEND
  5
1000022C
330
F480C
100
AcDbEntity
  8
VISIBLE
  0
POLYLINE
  5
F480D
102
{ACAD_XDICTIONARY
360
10000230
102
}
330
1F
100
AcDbEntity
  8
VISIBLE
100
AcDb3dPolyline
 66
     1
 10
0.0
 20
0.0
 30
0.0
 70
     8
  0
VERTEX
  5
1000022D
330
F480D
100
AcDbEntity
  8
VISIBLE
100
AcDbVertex
100
AcDb3dPolylineVertex
 10
-15.11281369482954
 20
-19.49051603614131
 30
0.0
 70
    32
  0
VERTEX
  5
1000022E
330
F480D
100
AcDbEntity
  8
VISIBLE
100
AcDbVertex
100
AcDb3dPolylineVertex
 10
-15.01367465929336
 20
-19.51374009139661
 30
0.0
 70
    32
  0
VERTEX
  5
1000022F
330
F480D
100
AcDbEntity
  8
VISIBLE
100
AcDbVertex
100
AcDb3dPolylineVertex
 10
-14.95666737677766
 20
-19.56457233478705
 30
0.0
 70
    32
  0
SEQEND
  5
10000232
330
F480D
100
AcDbEntity
  8
VISIBLE
  0
LINE
  5
F480E
102
{ACAD_XDICTIONARY
360
10000233
102
}
330
1F
100
AcDbEntity
  8
VISIBLE
100
AcDbLine
 10
-14.95666737677766
 20
-19.56457233478705
 30
0.0
 11
-14.95067860311992
 21
-19.56457233478705
 31
0.0
  0
LINE
  5
F480F
102
{ACAD_XDICTIONARY
360
10000238
102
}
330
1F
100
AcDbEntity
  8
VISIBLE
100
AcDbLine
 10
-14.95067860311992
 20
-19.56457233478705
 30
0.0
 11
-14.95389209142407
 21
-19.52849362519041
 31
0.0
  0
LINE
  5
F4810
102
{ACAD_XDICTIONARY
360
1000023A
102
}
330
1F
100
AcDbEntity
  8
VISIBLE
100
AcDbLine
 10
-14.95389209142407
 20
-19.52849362519041
 30
0.0
 11
-14.95579097087653
 21
-19.4932913214949
 31
0.0
  0
LINE
  5
F4811
102
{ACAD_XDICTIONARY
360
1000023C
102
}
330
1F
100
AcDbEntity
  8
VISIBLE
100
AcDbLine
 10
-14.95579097087653
 20
-19.4932913214949
 30
0.0
 11
-14.95579097087653
 21
-19.28967301713165
 31
0.0
  0
LINE
  5
F4812
102
{ACAD_XDICTIONARY
360
1000023E
102
}
330
1F
100
AcDbEntity
  8
VISIBLE
100
AcDbLine
 10
-14.95579097087653
 20
-19.28967301713165
 30
0.0
 11
-14.87998186042852
 21
-19.28967301713165
 31
0.0
  0
LINE
  5
F4813
102
{ACAD_XDICTIONARY
360
10000240
102
}
330
1F
100
AcDbEntity
  8
VISIBLE
100
AcDbLine
 10
-13.71538448547286
 20
-20.0
 30
0.0
 11
-13.71538448547286
 21
-19.49971829810321
 31
0.0
  0
LINE
  5
F4814
102
{ACAD_XDICTIONARY
360
10000242
102
}
330
1F
100
AcDbEntity
  8
VISIBLE
100
AcDbLine
 10
-13.71538448547286
 20
-19.49971829810321
 30
0.0
 11
-13.65374393709316
 21
-19.49971829810321
 31
0.0
  0
LINE
  5
F4815
102
{ACAD_XDICTIONARY
360
10000244
102
}
330
1F
100
AcDbEntity
  8
VISIBLE
100
AcDbLine
 10
-13.65374393709316
 20
-19.49971829810321
 30
0.0
 11
-13.6414742544773
 21
-19.56822402604178
 31
0.0
  0
LINE
  5
F4816
102
{ACAD_XDICTIONARY
360
10000246
102
}
330
1F
100
AcDbEntity
  8
VISIBLE
100
AcDbLine
 10
-13.6414742544773
 20
-19.56822402604178
 30
0.0
 11
-13.63782256322258
 21
-19.56822402604178
 31
0.0
  0
POLYLINE
  5
F4817
102
{ACAD_XDICTIONARY
360
1000024B
102
}
330
1F
100
AcDbEntity
  8
VISIBLE
100
AcDb3dPolyline
 66
     1
 10
0.0
 20
0.0
 30
0.0
 70
     8
  0
VERTEX
  5
10000248
330
F4817
100
AcDbEntity
  8
VISIBLE
100
AcDbVertex
100
AcDb3dPolylineVertex
 10
-13.63782256322258
 20
-19.56822402604178
 30
0.0
 70
    32
  0
VERTEX
  5
10000249
330
F4817
100
AcDbEntity
  8
VISIBLE
100
AcDbVertex
100
AcDb3dPolylineVertex
 10
-13.60580687138359
 20
-19.53203337019803
 30
0.0
 70
    32
  0
VERTEX
  5
1000024A
330
F4817
100
AcDbEntity
  8
VISIBLE
100
AcDbVertex
100
AcDb3dPolylineVertex
 10
-13.57245728976307
 20
-19.51089247334265
 30
0.0
 70
    32
  0
SEQEND
  5
1000024D
330
F4817
100
AcDbEntity
  8
VISIBLE
  0
POLYLINE
  5
F4818
102
{ACAD_XDICTIONARY
360
10000251
102
}
330
1F
100
AcDbEntity
  8
VISIBLE
100
AcDb3dPolyline
 66
     1
 10
0.0
 20
0.0
 30
0.0
 70
     8
  0
VERTEX
  5
1000024E
330
F4818
100
AcDbEntity
  8
VISIBLE
100
AcDbVertex
100
AcDb3dPolylineVertex
 10
-13.57245728976307
 20
-19.51089247334265
 30
0.0
 70
    32
  0
VERTEX
  5
1000024F
330
F4818
100
AcDbEntity
  8
VISIBLE
100
AcDbVertex
100
AcDb3dPolylineVertex
 10
-13.52242316001326
 20
-19.49446091438349
 30
0.0
 70
    32
  0
VERTEX
  5
10000250
330
F4818
100
AcDbEntity
  8
VISIBLE
100
AcDbVertex
100
AcDb3dPolylineVertex
 10
-13.47890095981712
 20
-19.49051603614131
 30
0.0
 70
    32
  0
SEQEND
  5
10000253
330
F4818
100
AcDbEntity
  8
VISIBLE
  0
POLYLINE
  5
F4819
102
{ACAD_XDICTIONARY
360
10000257
102
}
330
1F
100
AcDbEntity
  8
VISIBLE
100
AcDb3dPolyline
 66
     1
 10
0.0
 20
0.0
 30
0.0
 70
     8
  0
VERTEX
  5
10000254
330
F4819
100
AcDbEntity
  8
VISIBLE
100
AcDbVertex
100
AcDb3dPolylineVertex
 10
-13.47890095981712
 20
-19.49051603614131
 30
0.0
 70
    32
  0
VERTEX
  5
10000255
330
F4819
100
AcDbEntity
  8
VISIBLE
100
AcDbVertex
100
AcDb3dPolylineVertex
 10
-13.39167496812211
 20
-19.50418937044843
 30
0.0
 70
    32
  0
VERTEX
  5
10000256
330
F4819
100
AcDbEntity
  8
VISIBLE
100
AcDbVertex
100
AcDb3dPolylineVertex
 10
-13.34283894366621
 20
-19.53411722972268
 30
0.0
 70
    32
  0
SEQEND
  5
10000259
330
F4819
100
AcDbEntity
  8
VISIBLE
  0
POLYLINE
  5
F481A
102
{ACAD_XDICTIONARY
360
1000025D
102
}
330
1F
100
AcDbEntity
  8
VISIBLE
100
AcDb3dPolyline
 66
     1
 10
0.0
 20
0.0
 30
0.0
 70
     8
  0
VERTEX
  5
1000025A
330
F481A
100
AcDbEntity
  8
VISIBLE
100
AcDbVertex
100
AcDb3dPolylineVertex
 10
-13.34283894366621
 20
-19.53411722972268
 30
0.0
 70
    32
  0
VERTEX
  5
1000025B
330
F481A
100
AcDbEntity
  8
VISIBLE
100
AcDbVertex
100
AcDb3dPolylineVertex
 10
-13.30602989581862
 20
-19.59937230974689
 30
0.0
 70
    32
  0
VERTEX
  5
1000025C
330
F481A
100
AcDbEntity
  8
VISIBLE
100
AcDbVertex
100
AcDb3dPolylineVertex
 10
-13.29719280298219
 20
-19.67368486947812
 30
0.0
 70
    32
  0
SEQEND
  5
1000025F
330
F481A
100
AcDbEntity
  8
VISIBLE
  0
LINE
  5
F481B
102
{ACAD_XDICTIONARY
360
10000260
102
}
330
1F
100
AcDbEntity
  8
VISIBLE
100
AcDbLine
 10
-13.29719280298219
 20
-19.67368486947812
 30
0.0
 11
-13.29719280298219
 21
-20.0
 31
0.0
  0
LINE
  5
F481C
102
{ACAD_XDICTIONARY
360
10000265
102
}
330
1F
100
AcDbEntity
  8
VISIBLE
100
AcDbLine
 10
-13.29719280298219
 20
-20.0
 30
0.0
 11
-13.3730019134302
 21
-20.0
 31
0.0
  0
LINE
  5
F481D
102
{ACAD_XDICTIONARY
360
1000026A
102
}
330
1F
100
AcDbEntity
  8
VISIBLE
100
AcDbLine
 10
-12.40530373092911
 20
-20.0
 30
0.0
 11
-12.49659601229713
 21
-20.0
 31
0.0
  0
LINE
  5
F481E
102
{ACAD_XDICTIONARY
360
1000026F
102
}
330
1F
100
AcDbEntity
  8
VISIBLE
100
AcDbLine
 10
-12.49659601229713
 20
-20.0
 30
0.0
 11
-12.73979864986156
 21
-19.67631408718152
 31
0.0
  0
LINE
  5
F481F
102
{ACAD_XDICTIONARY
360
10000274
102
}
330
1F
100
AcDbEntity
  8
VISIBLE
100
AcDbLine
 10
-12.73979864986156
 20
-19.67631408718152
 30
0.0
 11
-12.80976505430202
 21
-19.73839283851178
 31
0.0
  0
LINE
  5
F4820
102
{ACAD_XDICTIONARY
360
10000279
102
}
330
1F
100
AcDbEntity
  8
VISIBLE
100
AcDbLine
 10
-12.80976505430202
 20
-19.73839283851178
 30
0.0
 11
-12.80976505430202
 21
-20.0
 31
0.0
  0
LINE
  5
F4821
102
{ACAD_XDICTIONARY
360
1000027E
102
}
330
1F
100
AcDbEntity
  8
VISIBLE
100
AcDbLine
 10
-12.80976505430202
 20
-20.0
 30
0.0
 11
-12.88732697655229
 21
-20.0
 31
0.0
  0
LINE
  5
F4822
102
{ACAD_XDICTIONARY
360
10000283
102
}
330
1F
100
AcDbEntity
  8
VISIBLE
100
AcDbLine
 10
-12.88732697655229
 20
-20.0
 30
0.0
 11
-12.88732697655229
 21
-19.33261690628717
 31
0.0
  0
LINE
  5
F4823
102
{ACAD_XDICTIONARY
360
10000288
102
}
330
1F
100
AcDbEntity
  8
VISIBLE
100
AcDbLine
 10
-12.88732697655229
 20
-19.33261690628717
 30
0.0
 11
-12.80976505430202
 21
-19.33261690628717
 31
0.0
  0
LINE
  5
F4824
102
{ACAD_XDICTIONARY
360
1000028D
102
}
330
1F
100
AcDbEntity
  8
VISIBLE
100
AcDbLine
 10
-12.80976505430202
 20
-19.33261690628717
 30
0.0
 11
-12.80976505430202
 21
-19.66360620161509
 31
0.0
  0
LINE
  5
F4825
102
{ACAD_XDICTIONARY
360
10000292
102
}
330
1F
100
AcDbEntity
  8
VISIBLE
100
AcDbLine
 10
-12.80976505430202
 20
-19.66360620161509
 30
0.0
 11
-12.50711288311073
 21
-19.33261690628717
 31
0.0
  0
LINE
  5
F4826
102
{ACAD_XDICTIONARY
360
10000297
102
}
330
1F
100
AcDbEntity
  8
VISIBLE
100
AcDbLine
 10
-12.50711288311073
 20
-19.33261690628717
 30
0.0
 11
-12.41538239879214
 21
-19.33261690628717
 31
0.0
  0
LINE
  5
F4827
102
{ACAD_XDICTIONARY
360
1000029C
102
}
330
1F
100
AcDbEntity
  8
VISIBLE
100
AcDbLine
 10
-12.41538239879214
 20
-19.33261690628717
 30
0.0
 11
-12.68370867218905
 21
-19.62256119191203
 31
0.0
  0
LINE
  5
F4828
102
{ACAD_XDICTIONARY
360
100002A1
102
}
330
1F
100
AcDbEntity
  8
VISIBLE
100
AcDbLine
 10
-12.68370867218904
 20
-19.62256119191202
 30
0.0
 11
-12.40530373092911
 21
-20.0
 31
0.0
  0
LINE
  5
F4829
102
{ACAD_XDICTIONARY
360
100002A6
102
}
330
1F
100
AcDbEntity
  8
VISIBLE
100
AcDbLine
 10
-12.36688793892944
 20
-19.78411201302089
 30
0.0
 11
-12.36688793892944
 21
-19.71472987918118
 31
0.0
  0
LINE
  5
F482A
102
{ACAD_XDICTIONARY
360
100002AB
102
}
330
1F
100
AcDbEntity
  8
VISIBLE
100
AcDbLine
 10
-12.36688793892944
 20
-19.71472987918118
 30
0.0
 11
-12.14282016353975
 21
-19.71472987918118
 31
0.0
  0
LINE
  5
F482B
102
{ACAD_XDICTIONARY
360
100002B0
102
}
330
1F
100
AcDbEntity
  8
VISIBLE
100
AcDbLine
 10
-12.14282016353975
 20
-19.71472987918118
 30
0.0
 11
-12.14282016353975
 21
-19.78411201302089
 31
0.0
  0
LINE
  5
F482C
102
{ACAD_XDICTIONARY
360
100002B5
102
}
330
1F
100
AcDbEntity
  8
VISIBLE
100
AcDbLine
 10
-12.14282016353975
 20
-19.78411201302089
 30
0.0
 11
-12.36688793892944
 21
-19.78411201302089
 31
0.0
  0
LINE
  5
F482D
102
{ACAD_XDICTIONARY
360
100002BA
102
}
330
1F
100
AcDbEntity
  8
VISIBLE
100
AcDbLine
 10
-11.80744883870616
 20
-20.0
 30
0.0
 11
-11.88501076095644
 21
-20.0
 31
0.0
  0
LINE
  5
F482E
102
{ACAD_XDICTIONARY
360
100002BF
102
}
330
1F
100
AcDbEntity
  8
VISIBLE
100
AcDbLine
 10
-11.88501076095644
 20
-20.0
 30
0.0
 11
-11.88501076095644
 21
-19.4015608371763
 31
0.0
  0
LINE
  5
F482F
102
{ACAD_XDICTIONARY
360
100002C4
102
}
330
1F
100
AcDbEntity
  8
VISIBLE
100
AcDbLine
 10
-11.88501076095644
 20
-19.40156083717631
 30
0.0
 11
-12.0963706507797
 21
-19.40156083717631
 31
0.0
  0
LINE
  5
F4830
102
{ACAD_XDICTIONARY
360
100002C9
102
}
330
1F
100
AcDbEntity
  8
VISIBLE
100
AcDbLine
 10
-12.0963706507797
 20
-19.40156083717631
 30
0.0
 11
-12.0963706507797
 21
-19.33261690628717
 31
0.0
  0
LINE
  5
F4831
102
{ACAD_XDICTIONARY
360
100002CE
102
}
330
1F
100
AcDbEntity
  8
VISIBLE
100
AcDbLine
 10
-12.0963706507797
 20
-19.33261690628717
 30
0.0
 11
-11.5960889488829
 21
-19.33261690628717
 31
0.0
  0
LINE
  5
F4832
102
{ACAD_XDICTIONARY
360
100002D3
102
}
330
1F
100
AcDbEntity
  8
VISIBLE
100
AcDbLine
 10
-11.5960889488829
 20
-19.33261690628717
 30
0.0
 11
-11.5960889488829
 21
-19.40156083717631
 31
0.0
  0
LINE
  5
F4833
102
{ACAD_XDICTIONARY
360
100002D8
102
}
330
1F
100
AcDbEntity
  8
VISIBLE
100
AcDbLine
 10
-11.5960889488829
 20
-19.40156083717631
 30
0.0
 11
-11.80744883870616
 21
-19.40156083717631
 31
0.0
  0
LINE
  5
F4834
102
{ACAD_XDICTIONARY
360
100002DD
102
}
330
1F
100
AcDbEntity
  8
VISIBLE
100
AcDbLine
 10
-11.80744883870616
 20
-19.4015608371763
 30
0.0
 11
-11.80744883870616
 21
-20.0
 31
0.0
  0
POLYLINE
  5
F4835
102
{ACAD_XDICTIONARY
360
100002E5
102
}
330
1F
100
AcDbEntity
  8
VISIBLE
100
AcDb3dPolyline
 66
     1
 10
0.0
 20
0.0
 30
0.0
 70
     8
  0
VERTEX
  5
100002E2
330
F4835
100
AcDbEntity
  8
VISIBLE
100
AcDbVertex
100
AcDb3dPolylineVertex
 10
-11.07521170830949
 20
-19.74934791227594
 30
0.0
 70
    32
  0
VERTEX
  5
100002E3
330
F4835
100
AcDbEntity
  8
VISIBLE
100
AcDbVertex
100
AcDb3dPolylineVertex
 10
-11.09451928087381
 20
-19.86960716148822
 30
0.0
 70
    32
  0
VERTEX
  5
100002E4
330
F4835
100
AcDbEntity
  8
VISIBLE
100
AcDbVertex
100
AcDb3dPolylineVertex
 10
-11.13677922286408
 20
-19.94047743254805
 30
0.0
 70
    32
  0
SEQEND
  5
100002E7
330
F4835
100
AcDbEntity
  8
VISIBLE
  0
POLYLINE
  5
F4836
102
{ACAD_XDICTIONARY
360
100002EB
102
}
330
1F
100
AcDbEntity
  8
VISIBLE
100
AcDb3dPolyline
 66
     1
 10
0.0
 20
0.0
 30
0.0
 70
     8
  0
VERTEX
  5
100002E8
330
F4836
100
AcDbEntity
  8
VISIBLE
100
AcDbVertex
100
AcDb3dPolylineVertex
 10
-11.13677922286408
 20
-19.94047743254805
 30
0.0
 70
    32
  0
VERTEX
  5
100002E9
330
F4836
100
AcDbEntity
  8
VISIBLE
100
AcDbVertex
100
AcDb3dPolylineVertex
 10
-11.22050753703473
 20
-19.99589713498738
 30
0.0
 70
    32
  0
VERTEX
  5
100002EA
330
F4836
100
AcDbEntity
  8
VISIBLE
100
AcDbVertex
100
AcDb3dPolylineVertex
 10
-11.30702106915918
 20
-20.0092022619619
 30
0.0
 70
    32
  0
SEQEND
  5
100002ED
330
F4836
100
AcDbEntity
  8
VISIBLE
  0
POLYLINE
  5
F4837
102
{ACAD_XDICTIONARY
360
100002F1
102
}
330
1F
100
AcDbEntity
  8
VISIBLE
100
AcDb3dPolyline
 66
     1
 10
0.0
 20
0.0
 30
0.0
 70
     8
  0
VERTEX
  5
100002EE
330
F4837
100
AcDbEntity
  8
VISIBLE
100
AcDbVertex
100
AcDb3dPolylineVertex
 10
-11.30702106915918
 20
-20.0092022619619
 30
0.0
 70
    32
  0
VERTEX
  5
100002EF
330
F4837
100
AcDbEntity
  8
VISIBLE
100
AcDbVertex
100
AcDb3dPolylineVertex
 10
-11.37751121376616
 20
-19.99930798990047
 30
0.0
 70
    32
  0
VERTEX
  5
100002F0
330
F4837
100
AcDbEntity
  8
VISIBLE
100
AcDbVertex
100
AcDb3dPolylineVertex
 10
-11.42621227171328
 20
-19.97765164952111
 30
0.0
 70
    32
  0
SEQEND
  5
100002F3
330
F4837
100
AcDbEntity
  8
VISIBLE
  0
POLYLINE
  5
F4838
102
{ACAD_XDICTIONARY
360
100002F7
102
}
330
1F
100
AcDbEntity
  8
VISIBLE
100
AcDb3dPolyline
 66
     1
 10
0.0
 20
0.0
 30
0.0
 70
     8
  0
VERTEX
  5
100002F4
330
F4838
100
AcDbEntity
  8
VISIBLE
100
AcDbVertex
100
AcDb3dPolylineVertex
 10
-11.42621227171328
 20
-19.97765164952111
 30
0.0
 70
    32
  0
VERTEX
  5
100002F5
330
F4838
100
AcDbEntity
  8
VISIBLE
100
AcDbVertex
100
AcDb3dPolylineVertex
 10
-11.4770316611505
 20
-19.93374908916386
 30
0.0
 70
    32
  0
VERTEX
  5
100002F6
330
F4838
100
AcDbEntity
  8
VISIBLE
100
AcDbVertex
100
AcDb3dPolylineVertex
 10
-11.50654947931714
 20
-19.88723577405421
 30
0.0
 70
    32
  0
SEQEND
  5
100002F9
330
F4838
100
AcDbEntity
  8
VISIBLE
  0
POLYLINE
  5
F4839
102
{ACAD_XDICTIONARY
360
100002FD
102
}
330
1F
100
AcDbEntity
  8
VISIBLE
100
AcDb3dPolyline
 66
     1
 10
0.0
 20
0.0
 30
0.0
 70
     8
  0
VERTEX
  5
100002FA
330
F4839
100
AcDbEntity
  8
VISIBLE
100
AcDbVertex
100
AcDb3dPolylineVertex
 10
-11.50654947931714
 20
-19.88723577405421
 30
0.0
 70
    32
  0
VERTEX
  5
100002FB
330
F4839
100
AcDbEntity
  8
VISIBLE
100
AcDbVertex
100
AcDb3dPolylineVertex
 10
-11.52940053622093
 20
-19.81498533898128
 30
0.0
 70
    32
  0
VERTEX
  5
100002FC
330
F4839
100
AcDbEntity
  8
VISIBLE
100
AcDbVertex
100
AcDb3dPolylineVertex
 10
-11.53488660345378
 20
-19.74934791227594
 30
0.0
 70
    32
  0
SEQEND
  5
100002FF
330
F4839
100
AcDbEntity
  8
VISIBLE
  0
POLYLINE
  5
F483A
102
{ACAD_XDICTIONARY
360
10000303
102
}
330
1F
100
AcDbEntity
  8
VISIBLE
100
AcDb3dPolyline
 66
     1
 10
0.0
 20
0.0
 30
0.0
 70
     8
  0
VERTEX
  5
10000300
330
F483A
100
AcDbEntity
  8
VISIBLE
100
AcDbVertex
100
AcDb3dPolylineVertex
 10
-11.53488660345378
 20
-19.74934791227594
 30
0.0
 70
    32
  0
VERTEX
  5
10000301
330
F483A
100
AcDbEntity
  8
VISIBLE
100
AcDbVertex
100
AcDb3dPolylineVertex
 10
-11.5156935479272
 20
-19.62934387246207
 30
0.0
 70
    32
  0
VERTEX
  5
10000302
330
F483A
100
AcDbEntity
  8
VISIBLE
100
AcDbVertex
100
AcDb3dPolylineVertex
 10
-11.47368425802465
 20
-19.5588026626046
 30
0.0
 70
    32
  0
SEQEND
  5
10000305
330
F483A
100
AcDbEntity
  8
VISIBLE
  0
POLYLINE
  5
F483B
102
{ACAD_XDICTIONARY
360
10000309
102
}
330
1F
100
AcDbEntity
  8
VISIBLE
100
AcDb3dPolyline
 66
     1
 10
0.0
 20
0.0
 30
0.0
 70
     8
  0
VERTEX
  5
10000306
330
F483B
100
AcDbEntity
  8
VISIBLE
100
AcDbVertex
100
AcDb3dPolylineVertex
 10
-11.47368425802465
 20
-19.5588026626046
 30
0.0
 70
    32
  0
VERTEX
  5
10000307
330
F483B
100
AcDbEntity
  8
VISIBLE
100
AcDbVertex
100
AcDb3dPolylineVertex
 10
-11.39025041623678
 20
-19.5037363270246
 30
0.0
 70
    32
  0
VERTEX
  5
10000308
330
F483B
100
AcDbEntity
  8
VISIBLE
100
AcDbVertex
100
AcDb3dPolylineVertex
 10
-11.30380758085503
 20
-19.49051603614131
 30
0.0
 70
    32
  0
SEQEND
  5
1000030B
330
F483B
100
AcDbEntity
  8
VISIBLE
  0
POLYLINE
  5
F483C
102
{ACAD_XDICTIONARY
360
1000030F
102
}
330
1F
100
AcDbEntity
  8
VISIBLE
100
AcDb3dPolyline
 66
     1
 10
0.0
 20
0.0
 30
0.0
 70
     8
  0
VERTEX
  5
1000030C
330
F483C
100
AcDbEntity
  8
VISIBLE
100
AcDbVertex
100
AcDb3dPolylineVertex
 10
-11.30380758085503
 20
-19.49051603614131
 30
0.0
 70
    32
  0
VERTEX
  5
1000030D
330
F483C
100
AcDbEntity
  8
VISIBLE
100
AcDbVertex
100
AcDb3dPolylineVertex
 10
-11.19983592632589
 20
-19.51243459716629
 30
0.0
 70
    32
  0
VERTEX
  5
1000030E
330
F483C
100
AcDbEntity
  8
VISIBLE
100
AcDbVertex
100
AcDb3dPolylineVertex
 10
-11.13707135816446
 20
-19.56040940675667
 30
0.0
 70
    32
  0
SEQEND
  5
10000311
330
F483C
100
AcDbEntity
  8
VISIBLE
  0
POLYLINE
  5
F483D
102
{ACAD_XDICTIONARY
360
10000315
102
}
330
1F
100
AcDbEntity
  8
VISIBLE
100
AcDb3dPolyline
 66
     1
 10
0.0
 20
0.0
 30
0.0
 70
     8
  0
VERTEX
  5
10000312
330
F483D
100
AcDbEntity
  8
VISIBLE
100
AcDbVertex
100
AcDb3dPolylineVertex
 10
-11.13707135816446
 20
-19.56040940675667
 30
0.0
 70
    32
  0
VERTEX
  5
10000313
330
F483D
100
AcDbEntity
  8
VISIBLE
100
AcDbVertex
100
AcDb3dPolylineVertex
 10
-11.08718773652141
 20
-19.65410397512677
 30
0.0
 70
    32
  0
VERTEX
  5
10000314
330
F483D
100
AcDbEntity
  8
VISIBLE
100
AcDbVertex
100
AcDb3dPolylineVertex
 10
-11.07521170830949
 20
-19.74934791227594
 30
0.0
 70
    32
  0
SEQEND
  5
10000317
330
F483D
100
AcDbEntity
  8
VISIBLE
  0
POLYLINE
  5
F483E
102
{ACAD_XDICTIONARY
360
1000031B
102
}
330
1F
100
AcDbEntity
  8
VISIBLE
100
AcDb3dPolyline
 66
     1
 10
0.0
 20
0.0
 30
0.0
 70
     8
  0
VERTEX
  5
10000318
330
F483E
100
AcDbEntity
  8
VISIBLE
100
AcDbVertex
100
AcDb3dPolylineVertex
 10
-11.45630220765218
 20
-19.74934791227594
 30
0.0
 70
    32
  0
VERTEX
  5
10000319
330
F483E
100
AcDbEntity
  8
VISIBLE
100
AcDbVertex
100
AcDb3dPolylineVertex
 10
-11.44427791868863
 20
-19.84246989545729
 30
0.0
 70
    32
  0
VERTEX
  5
1000031A
330
F483E
100
AcDbEntity
  8
VISIBLE
100
AcDbVertex
100
AcDb3dPolylineVertex
 10
-11.41795944947761
 20
-19.89548859628988
 30
0.0
 70
    32
  0
SEQEND
  5
1000031D
330
F483E
100
AcDbEntity
  8
VISIBLE
  0
POLYLINE
  5
F483F
102
{ACAD_XDICTIONARY
360
10000321
102
}
330
1F
100
AcDbEntity
  8
VISIBLE
100
AcDb3dPolyline
 66
     1
 10
0.0
 20
0.0
 30
0.0
 70
     8
  0
VERTEX
  5
1000031E
330
F483F
100
AcDbEntity
  8
VISIBLE
100
AcDbVertex
100
AcDb3dPolylineVertex
 10
-11.41795944947761
 20
-19.89548859628988
 30
0.0
 70
    32
  0
VERTEX
  5
1000031F
330
F483F
100
AcDbEntity
  8
VISIBLE
100
AcDbVertex
100
AcDb3dPolylineVertex
 10
-11.36372418040013
 20
-19.93594910168395
 30
0.0
 70
    32
  0
VERTEX
  5
10000320
330
F483F
100
AcDbEntity
  8
VISIBLE
100
AcDbVertex
100
AcDb3dPolylineVertex
 10
-11.30526825735691
 20
-19.94566283412975
 30
0.0
 70
    32
  0
SEQEND
  5
10000323
330
F483F
100
AcDbEntity
  8
VISIBLE
  0
POLYLINE
  5
F4840
102
{ACAD_XDICTIONARY
360
10000327
102
}
330
1F
100
AcDbEntity
  8
VISIBLE
100
AcDb3dPolyline
 66
     1
 10
0.0
 20
0.0
 30
0.0
 70
     8
  0
VERTEX
  5
10000324
330
F4840
100
AcDbEntity
  8
VISIBLE
100
AcDbVertex
100
AcDb3dPolylineVertex
 10
-11.30526825735691
 20
-19.94566283412975
 30
0.0
 70
    32
  0
VERTEX
  5
10000325
330
F4840
100
AcDbEntity
  8
VISIBLE
100
AcDbVertex
100
AcDb3dPolylineVertex
 10
-11.23310289208345
 20
-19.92999690336582
 30
0.0
 70
    32
  0
VERTEX
  5
10000326
330
F4840
100
AcDbEntity
  8
VISIBLE
100
AcDbVertex
100
AcDb3dPolylineVertex
 10
-11.19221189611075
 20
-19.89570769776517
 30
0.0
 70
    32
  0
SEQEND
  5
10000329
330
F4840
100
AcDbEntity
  8
VISIBLE
  0
POLYLINE
  5
F4841
102
{ACAD_XDICTIONARY
360
1000032D
102
}
330
1F
100
AcDbEntity
  8
VISIBLE
100
AcDb3dPolyline
 66
     1
 10
0.0
 20
0.0
 30
0.0
 70
     8
  0
VERTEX
  5
1000032A
330
F4841
100
AcDbEntity
  8
VISIBLE
100
AcDbVertex
100
AcDb3dPolylineVertex
 10
-11.19221189611075
 20
-19.89570769776517
 30
0.0
 70
    32
  0
VERTEX
  5
1000032B
330
F4841
100
AcDbEntity
  8
VISIBLE
100
AcDbVertex
100
AcDb3dPolylineVertex
 10
-11.16111561248911
 20
-19.82519137783528
 30
0.0
 70
    32
  0
VERTEX
  5
1000032C
330
F4841
100
AcDbEntity
  8
VISIBLE
100
AcDbVertex
100
AcDb3dPolylineVertex
 10
-11.15365003646089
 20
-19.74934791227594
 30
0.0
 70
    32
  0
SEQEND
  5
1000032F
330
F4841
100
AcDbEntity
  8
VISIBLE
  0
POLYLINE
  5
F4842
102
{ACAD_XDICTIONARY
360
10000333
102
}
330
1F
100
AcDbEntity
  8
VISIBLE
100
AcDb3dPolyline
 66
     1
 10
0.0
 20
0.0
 30
0.0
 70
     8
  0
VERTEX
  5
10000330
330
F4842
100
AcDbEntity
  8
VISIBLE
100
AcDbVertex
100
AcDb3dPolylineVertex
 10
-11.15365003646089
 20
-19.74934791227594
 30
0.0
 70
    32
  0
VERTEX
  5
10000331
330
F4842
100
AcDbEntity
  8
VISIBLE
100
AcDbVertex
100
AcDb3dPolylineVertex
 10
-11.16574303564709
 20
-19.65690321557499
 30
0.0
 70
    32
  0
VERTEX
  5
10000332
330
F4842
100
AcDbEntity
  8
VISIBLE
100
AcDbVertex
100
AcDb3dPolylineVertex
 10
-11.19221189611075
 20
-19.60444880328861
 30
0.0
 70
    32
  0
SEQEND
  5
10000335
330
F4842
100
AcDbEntity
  8
VISIBLE
  0
POLYLINE
  5
F4843
102
{ACAD_XDICTIONARY
360
10000339
102
}
330
1F
100
AcDbEntity
  8
VISIBLE
100
AcDb3dPolyline
 66
     1
 10
0.0
 20
0.0
 30
0.0
 70
     8
  0
VERTEX
  5
10000336
330
F4843
100
AcDbEntity
  8
VISIBLE
100
AcDbVertex
100
AcDb3dPolylineVertex
 10
-11.19221189611075
 20
-19.60444880328861
 30
0.0
 70
    32
  0
VERTEX
  5
10000337
330
F4843
100
AcDbEntity
  8
VISIBLE
100
AcDbVertex
100
AcDb3dPolylineVertex
 10
-11.24694449632359
 20
-19.56451834818354
 30
0.0
 70
    32
  0
VERTEX
  5
10000338
330
F4843
100
AcDbEntity
  8
VISIBLE
100
AcDbVertex
100
AcDb3dPolylineVertex
 10
-11.30614466325805
 20
-19.55493186987459
 30
0.0
 70
    32
  0
SEQEND
  5
1000033B
330
F4843
100
AcDbEntity
  8
VISIBLE
  0
POLYLINE
  5
F4844
102
{ACAD_XDICTIONARY
360
1000033F
102
}
330
1F
100
AcDbEntity
  8
VISIBLE
100
AcDb3dPolyline
 66
     1
 10
0.0
 20
0.0
 30
0.0
 70
     8
  0
VERTEX
  5
1000033C
330
F4844
100
AcDbEntity
  8
VISIBLE
100
AcDbVertex
100
AcDb3dPolylineVertex
 10
-11.30614466325805
 20
-19.55493186987459
 30
0.0
 70
    32
  0
VERTEX
  5
1000033D
330
F4844
100
AcDbEntity
  8
VISIBLE
100
AcDbVertex
100
AcDb3dPolylineVertex
 10
-11.37798610891045
 20
-19.57025424952528
 30
0.0
 70
    32
  0
VERTEX
  5
1000033E
330
F4844
100
AcDbEntity
  8
VISIBLE
100
AcDbVertex
100
AcDb3dPolylineVertex
 10
-11.41839765242817
 20
-19.60379149886276
 30
0.0
 70
    32
  0
SEQEND
  5
10000341
330
F4844
100
AcDbEntity
  8
VISIBLE
  0
POLYLINE
  5
F4845
102
{ACAD_XDICTIONARY
360
10000345
102
}
330
1F
100
AcDbEntity
  8
VISIBLE
100
AcDb3dPolyline
 66
     1
 10
0.0
 20
0.0
 30
0.0
 70
     8
  0
VERTEX
  5
10000342
330
F4845
100
AcDbEntity
  8
VISIBLE
100
AcDbVertex
100
AcDb3dPolylineVertex
 10
-11.41839765242817
 20
-19.60379149886276
 30
0.0
 70
    32
  0
VERTEX
  5
10000343
330
F4845
100
AcDbEntity
  8
VISIBLE
100
AcDbVertex
100
AcDb3dPolylineVertex
 10
-11.44896388576081
 20
-19.6735160152745
 30
0.0
 70
    32
  0
VERTEX
  5
10000344
330
F4845
100
AcDbEntity
  8
VISIBLE
100
AcDbVertex
100
AcDb3dPolylineVertex
 10
-11.45630220765218
 20
-19.74934791227594
 30
0.0
 70
    32
  0
SEQEND
  5
10000347
330
F4845
100
AcDbEntity
  8
VISIBLE
  0
LINE
  5
F4846
102
{ACAD_XDICTIONARY
360
10000348
102
}
330
1F
100
AcDbEntity
  8
VISIBLE
100
AcDbLine
 10
-10.53373892905944
 20
-20.0
 30
0.0
 11
-10.62546941337803
 21
-19.70655009077061
 31
0.0
  0
POLYLINE
  5
F4847
102
{ACAD_XDICTIONARY
360
1000034D
102
}
330
1F
100
AcDbEntity
  8
VISIBLE
100
AcDb3dPolyline
 66
     1
 10
0.0
 20
0.0
 30
0.0
 70
     8
  0
VERTEX
  5
1000034A
330
F4847
100
AcDbEntity
  8
VISIBLE
100
AcDbVertex
100
AcDb3dPolylineVertex
 10
-10.62546941337803
 20
-19.70655009077061
 30
0.0
 70
    32
  0
VERTEX
  5
1000034B
330
F4847
100
AcDbEntity
  8
VISIBLE
100
AcDbVertex
100
AcDb3dPolylineVertex
 10
-10.63995745461084
 20
-19.65484728418505
 30
0.0
 70
    32
  0
VERTEX
  5
1000034C
330
F4847
100
AcDbEntity
  8
VISIBLE
100
AcDbVertex
100
AcDb3dPolylineVertex
 10
-10.65789643171995
 20
-19.58414539991236
 30
0.0
 70
    32
  0
SEQEND
  5
1000034F
330
F4847
100
AcDbEntity
  8
VISIBLE
  0
LINE
  5
F4848
102
{ACAD_XDICTIONARY
360
10000350
102
}
330
1F
100
AcDbEntity
  8
VISIBLE
100
AcDbLine
 10
-10.65789643171995
 20
-19.58414539991236
 30
0.0
 11
-10.66154812297468
 21
-19.58414539991236
 31
0.0
  0
POLYLINE
  5
F4849
102
{ACAD_XDICTIONARY
360
10000358
102
}
330
1F
100
AcDbEntity
  8
VISIBLE
100
AcDb3dPolyline
 66
     1
 10
0.0
 20
0.0
 30
0.0
 70
     8
  0
VERTEX
  5
10000355
330
F4849
100
AcDbEntity
  8
VISIBLE
100
AcDbVertex
100
AcDb3dPolylineVertex
 10
-10.66154812297468
 20
-19.58414539991236
 30
0.0
 70
    32
  0
VERTEX
  5
10000356
330
F4849
100
AcDbEntity
  8
VISIBLE
100
AcDbVertex
100
AcDb3dPolylineVertex
 10
-10.68057758273304
 20
-19.66218058134925
 30
0.0
 70
    32
  0
VERTEX
  5
10000357
330
F4849
100
AcDbEntity
  8
VISIBLE
100
AcDbVertex
100
AcDb3dPolylineVertex
 10
-10.69353693836603
 20
-19.70742649667175
 30
0.0
 70
    32
  0
SEQEND
  5
1000035A
330
F4849
100
AcDbEntity
  8
VISIBLE
  0
LINE
  5
F484A
102
{ACAD_XDICTIONARY
360
1000035B
102
}
330
1F
100
AcDbEntity
  8
VISIBLE
100
AcDbLine
 10
-10.69353693836603
 20
-19.70742649667174
 30
0.0
 11
-10.78804270803822
 21
-20.0
 31
0.0
  0
LINE
  5
F484B
102
{ACAD_XDICTIONARY
360
10000360
102
}
330
1F
100
AcDbEntity
  8
VISIBLE
100
AcDbLine
 10
-10.78804270803822
 20
-20.0
 30
0.0
 11
-10.87568329815152
 21
-20.0
 31
0.0
  0
LINE
  5
F484C
102
{ACAD_XDICTIONARY
360
10000365
102
}
330
1F
100
AcDbEntity
  8
VISIBLE
100
AcDbLine
 10
-10.87568329815152
 20
-20.0
 30
0.0
 11
-11.0121104834279
 21
-19.49971829810321
 31
0.0
  0
LINE
  5
F484D
102
{ACAD_XDICTIONARY
360
1000036A
102
}
330
1F
100
AcDbEntity
  8
VISIBLE
100
AcDbLine
 10
-11.0121104834279
 20
-19.49971829810321
 30
0.0
 11
-10.93264968172517
 21
-19.49971829810321
 31
0.0
  0
POLYLINE
  5
F484E
102
{ACAD_XDICTIONARY
360
10000372
102
}
330
1F
100
AcDbEntity
  8
VISIBLE
100
AcDb3dPolyline
 66
     1
 10
0.0
 20
0.0
 30
0.0
 70
     8
  0
VERTEX
  5
1000036F
330
F484E
100
AcDbEntity
  8
VISIBLE
100
AcDbVertex
100
AcDb3dPolylineVertex
 10
-10.93264968172517
 20
-19.49971829810321
 30
0.0
 70
    32
  0
VERTEX
  5
10000370
330
F484E
100
AcDbEntity
  8
VISIBLE
100
AcDbVertex
100
AcDb3dPolylineVertex
 10
-10.88571405582529
 20
-19.68270343676314
 30
0.0
 70
    32
  0
VERTEX
  5
10000371
330
F484E
100
AcDbEntity
  8
VISIBLE
100
AcDbVertex
100
AcDb3dPolylineVertex
 10
-10.8589585522049
 20
-19.78688729837447
 30
0.0
 70
    32
  0
SEQEND
  5
10000374
330
F484E
100
AcDbEntity
  8
VISIBLE
  0
POLYLINE
  5
F484F
102
{ACAD_XDICTIONARY
360
10000378
102
}
330
1F
100
AcDbEntity
  8
VISIBLE
100
AcDb3dPolyline
 66
     1
 10
0.0
 20
0.0
 30
0.0
 70
     8
  0
VERTEX
  5
10000375
330
F484F
100
AcDbEntity
  8
VISIBLE
100
AcDbVertex
100
AcDb3dPolylineVertex
 10
-10.8589585522049
 20
-19.78688729837447
 30
0.0
 70
    32
  0
VERTEX
  5
10000376
330
F484F
100
AcDbEntity
  8
VISIBLE
100
AcDbVertex
100
AcDb3dPolylineVertex
 10
-10.83737699846244
 20
-19.87711363645849
 30
0.0
 70
    32
  0
VERTEX
  5
10000377
330
F484F
100
AcDbEntity
  8
VISIBLE
100
AcDbVertex
100
AcDb3dPolylineVertex
 10
-10.82996412364241
 20
-19.91966279239614
 30
0.0
 70
    32
  0
SEQEND
  5
1000037A
330
F484F
100
AcDbEntity
  8
VISIBLE
  0
LINE
  5
F4850
102
{ACAD_XDICTIONARY
360
1000037B
102
}
330
1F
100
AcDbEntity
  8
VISIBLE
100
AcDbLine
 10
-10.82996412364241
 20
-19.91966279239614
 30
0.0
 11
-10.82631243238769
 21
-19.91966279239614
 31
0.0
  0
POLYLINE
  5
F4851
102
{ACAD_XDICTIONARY
360
10000383
102
}
330
1F
100
AcDbEntity
  8
VISIBLE
100
AcDb3dPolyline
 66
     1
 10
0.0
 20
0.0
 30
0.0
 70
     8
  0
VERTEX
  5
10000380
330
F4851
100
AcDbEntity
  8
VISIBLE
100
AcDbVertex
100
AcDb3dPolylineVertex
 10
-10.82631243238769
 20
-19.91966279239614
 30
0.0
 70
    32
  0
VERTEX
  5
10000381
330
F4851
100
AcDbEntity
  8
VISIBLE
100
AcDbVertex
100
AcDb3dPolylineVertex
 10
-10.81880338662678
 20
-19.88573303006907
 30
0.0
 70
    32
  0
VERTEX
  5
10000382
330
F4851
100
AcDbEntity
  8
VISIBLE
100
AcDbVertex
100
AcDb3dPolylineVertex
 10
-10.81017195704183
 20
-19.85232560565908
 30
0.0
 70
    32
  0
SEQEND
  5
10000385
330
F4851
100
AcDbEntity
  8
VISIBLE
  0
POLYLINE
  5
F4852
102
{ACAD_XDICTIONARY
360
10000389
102
}
330
1F
100
AcDbEntity
  8
VISIBLE
100
AcDb3dPolyline
 66
     1
 10
0.0
 20
0.0
 30
0.0
 70
     8
  0
VERTEX
  5
10000386
330
F4852
100
AcDbEntity
  8
VISIBLE
100
AcDbVertex
100
AcDb3dPolylineVertex
 10
-10.81017195704183
 20
-19.85232560565908
 30
0.0
 70
    32
  0
VERTEX
  5
10000387
330
F4852
100
AcDbEntity
  8
VISIBLE
100
AcDbVertex
100
AcDb3dPolylineVertex
 10
-10.79855011366808
 20
-19.81143320743693
 30
0.0
 70
    32
  0
VERTEX
  5
10000388
330
F4852
100
AcDbEntity
  8
VISIBLE
100
AcDbVertex
100
AcDb3dPolylineVertex
 10
-10.79067192574161
 20
-19.78688729837447
 30
0.0
 70
    32
  0
SEQEND
  5
1000038B
330
F4852
100
AcDbEntity
  8
VISIBLE
  0
LINE
  5
F4853
102
{ACAD_XDICTIONARY
360
1000038C
102
}
330
1F
100
AcDbEntity
  8
VISIBLE
100
AcDbLine
 10
-10.79067192574161
 20
-19.78688729837448
 30
0.0
 11
-10.69894144142302
 21
-19.49971829810321
 31
0.0
  0
LINE
  5
F4854
102
{ACAD_XDICTIONARY
360
1000038E
102
}
330
1F
100
AcDbEntity
  8
VISIBLE
100
AcDbLine
 10
-10.69894144142302
 20
-19.49971829810321
 30
0.0
 11
-10.61685142201689
 21
-19.49971829810321
 31
0.0
  0
LINE
  5
F4855
102
{ACAD_XDICTIONARY
360
10000390
102
}
330
1F
100
AcDbEntity
  8
VISIBLE
100
AcDbLine
 10
-10.61685142201689
 20
-19.49971829810321
 30
0.0
 11
-10.52731195245113
 21
-19.78688729837448
 31
0.0
  0
POLYLINE
  5
F4856
102
{ACAD_XDICTIONARY
360
10000395
102
}
330
1F
100
AcDbEntity
  8
VISIBLE
100
AcDb3dPolyline
 66
     1
 10
0.0
 20
0.0
 30
0.0
 70
     8
  0
VERTEX
  5
10000392
330
F4856
100
AcDbEntity
  8
VISIBLE
100
AcDbVertex
100
AcDb3dPolylineVertex
 10
-10.52731195245113
 20
-19.78688729837447
 30
0.0
 70
    32
  0
VERTEX
  5
10000393
330
F4856
100
AcDbEntity
  8
VISIBLE
100
AcDbVertex
100
AcDb3dPolylineVertex
 10
-10.50385886312032
 20
-19.86690526052209
 30
0.0
 70
    32
  0
VERTEX
  5
10000394
330
F4856
100
AcDbEntity
  8
VISIBLE
100
AcDbVertex
100
AcDb3dPolylineVertex
 10
-10.49269391935637
 20
-19.918786386495
 30
0.0
 70
    32
  0
SEQEND
  5
10000397
330
F4856
100
AcDbEntity
  8
VISIBLE
  0
LINE
  5
F4857
102
{ACAD_XDICTIONARY
360
10000398
102
}
330
1F
100
AcDbEntity
  8
VISIBLE
100
AcDbLine
 10
-10.49269391935637
 20
-19.918786386495
 30
0.0
 11
-10.48904222810165
 21
-19.918786386495
 31
0.0
  0
POLYLINE
  5
F4858
102
{ACAD_XDICTIONARY
360
100003A0
102
}
330
1F
100
AcDbEntity
  8
VISIBLE
100
AcDb3dPolyline
 66
     1
 10
0.0
 20
0.0
 30
0.0
 70
     8
  0
VERTEX
  5
1000039D
330
F4858
100
AcDbEntity
  8
VISIBLE
100
AcDbVertex
100
AcDb3dPolylineVertex
 10
-10.48904222810165
 20
-19.918786386495
 30
0.0
 70
    32
  0
VERTEX
  5
1000039E
330
F4858
100
AcDbEntity
  8
VISIBLE
100
AcDbVertex
100
AcDb3dPolylineVertex
 10
-10.48501450028828
 20
-19.89473453665255
 30
0.0
 70
    32
  0
VERTEX
  5
1000039F
330
F4858
100
AcDbEntity
  8
VISIBLE
100
AcDbVertex
100
AcDb3dPolylineVertex
 10
-10.4791826617139
 20
-19.86802787805438
 30
0.0
 70
    32
  0
SEQEND
  5
100003A2
330
F4858
100
AcDbEntity
  8
VISIBLE
  0
POLYLINE
  5
F4859
102
{ACAD_XDICTIONARY
360
100003A6
102
}
330
1F
100
AcDbEntity
  8
VISIBLE
100
AcDb3dPolyline
 66
     1
 10
0.0
 20
0.0
 30
0.0
 70
     8
  0
VERTEX
  5
100003A3
330
F4859
100
AcDbEntity
  8
VISIBLE
100
AcDbVertex
100
AcDb3dPolylineVertex
 10
-10.4791826617139
 20
-19.86802787805438
 30
0.0
 70
    32
  0
VERTEX
  5
100003A4
330
F4859
100
AcDbEntity
  8
VISIBLE
100
AcDbVertex
100
AcDb3dPolylineVertex
 10
-10.44541649515505
 20
-19.73564618241763
 30
0.0
 70
    32
  0
VERTEX
  5
100003A5
330
F4859
100
AcDbEntity
  8
VISIBLE
100
AcDbVertex
100
AcDb3dPolylineVertex
 10
-10.38401958761587
 20
-19.49971829810321
 30
0.0
 70
    32
  0
SEQEND
  5
100003A8
330
F4859
100
AcDbEntity
  8
VISIBLE
  0
LINE
  5
F485A
102
{ACAD_XDICTIONARY
360
100003A9
102
}
330
1F
100
AcDbEntity
  8
VISIBLE
100
AcDbLine
 10
-10.38401958761587
 20
-19.49971829810321
 30
0.0
 11
-10.30558125946446
 21
-19.49971829810321
 31
0.0
  0
LINE
  5
F485B
102
{ACAD_XDICTIONARY
360
100003AE
102
}
330
1F
100
AcDbEntity
  8
VISIBLE
100
AcDbLine
 10
-10.30558125946446
 20
-19.49971829810321
 30
0.0
 11
-10.44376125654311
 21
-20.0
 31
0.0
  0
LINE
  5
F485C
102
{ACAD_XDICTIONARY
360
100003B3
102
}
330
1F
100
AcDbEntity
  8
VISIBLE
100
AcDbLine
 10
-10.44376125654311
 20
-20.0
 30
0.0
 11
-10.53373892905944
 21
-20.0
 31
0.0
  0
LINE
  5
F485D
102
{ACAD_XDICTIONARY
360
100003B8
102
}
330
1F
100
AcDbEntity
  8
VISIBLE
100
AcDbLine
 10
-9.872782811954913
 20
-20.0
 30
0.0
 11
-9.872782811954913
 21
-19.67631408718152
 31
0.0
  0
POLYLINE
  5
F485E
102
{ACAD_XDICTIONARY
360
100003C0
102
}
330
1F
100
AcDbEntity
  8
VISIBLE
100
AcDb3dPolyline
 66
     1
 10
0.0
 20
0.0
 30
0.0
 70
     8
  0
VERTEX
  5
100003BD
330
F485E
100
AcDbEntity
  8
VISIBLE
100
AcDbVertex
100
AcDb3dPolylineVertex
 10
-9.872782811954913
 20
-19.67631408718152
 30
0.0
 70
    32
  0
VERTEX
  5
100003BE
330
F485E
100
AcDbEntity
  8
VISIBLE
100
AcDbVertex
100
AcDb3dPolylineVertex
 10
-9.881509010231316
 20
-19.6176191974626
 30
0.0
 70
    32
  0
VERTEX
  5
100003BF
330
F485E
100
AcDbEntity
  8
VISIBLE
100
AcDbVertex
100
AcDb3dPolylineVertex
 10
-9.900608699315889
 20
-19.58509483963859
 30
0.0
 70
    32
  0
SEQEND
  5
100003C2
330
F485E
100
AcDbEntity
  8
VISIBLE
  0
POLYLINE
  5
F485F
102
{ACAD_XDICTIONARY
360
100003C6
102
}
330
1F
100
AcDbEntity
  8
VISIBLE
100
AcDb3dPolyline
 66
     1
 10
0.0
 20
0.0
 30
0.0
 70
     8
  0
VERTEX
  5
100003C3
330
F485F
100
AcDbEntity
  8
VISIBLE
100
AcDbVertex
100
AcDb3dPolylineVertex
 10
-9.900608699315889
 20
-19.58509483963859
 30
0.0
 70
    32
  0
VERTEX
  5
100003C4
330
F485F
100
AcDbEntity
  8
VISIBLE
100
AcDbVertex
100
AcDb3dPolylineVertex
 10
-9.941690868629161
 20
-19.5607714208209
 30
0.0
 70
    32
  0
VERTEX
  5
100003C5
330
F485F
100
AcDbEntity
  8
VISIBLE
100
AcDbVertex
100
AcDb3dPolylineVertex
 10
-9.987884120303722
 20
-19.55493186987459
 30
0.0
 70
    32
  0
SEQEND
  5
100003C8
330
F485F
100
AcDbEntity
  8
VISIBLE
  0
POLYLINE
  5
F4860
102
{ACAD_XDICTIONARY
360
100003CC
102
}
330
1F
100
AcDbEntity
  8
VISIBLE
100
AcDb3dPolyline
 66
     1
 10
0.0
 20
0.0
 30
0.0
 70
     8
  0
VERTEX
  5
100003C9
330
F4860
100
AcDbEntity
  8
VISIBLE
100
AcDbVertex
100
AcDb3dPolylineVertex
 10
-9.987884120303722
 20
-19.55493186987459
 30
0.0
 70
    32
  0
VERTEX
  5
100003CA
330
F4860
100
AcDbEntity
  8
VISIBLE
100
AcDbVertex
100
AcDb3dPolylineVertex
 10
-10.06258849189983
 20
-19.56823874966091
 30
0.0
 70
    32
  0
VERTEX
  5
100003CB
330
F4860
100
AcDbEntity
  8
VISIBLE
100
AcDbVertex
100
AcDb3dPolylineVertex
 10
-10.10283936100234
 20
-19.59736452225445
 30
0.0
 70
    32
  0
SEQEND
  5
100003CE
330
F4860
100
AcDbEntity
  8
VISIBLE
  0
POLYLINE
  5
F4861
102
{ACAD_XDICTIONARY
360
100003D2
102
}
330
1F
100
AcDbEntity
  8
VISIBLE
100
AcDb3dPolyline
 66
     1
 10
0.0
 20
0.0
 30
0.0
 70
     8
  0
VERTEX
  5
100003CF
330
F4861
100
AcDbEntity
  8
VISIBLE
100
AcDbVertex
100
AcDb3dPolylineVertex
 10
-10.10283936100234
 20
-19.59736452225445
 30
0.0
 70
    32
  0
VERTEX
  5
100003D0
330
F4861
100
AcDbEntity
  8
VISIBLE
100
AcDbVertex
100
AcDb3dPolylineVertex
 10
-10.13228659928042
 20
-19.66222697243495
 30
0.0
 70
    32
  0
VERTEX
  5
100003D1
330
F4861
100
AcDbEntity
  8
VISIBLE
100
AcDbVertex
100
AcDb3dPolylineVertex
 10
-10.13935627354955
 20
-19.73751643261065
 30
0.0
 70
    32
  0
SEQEND
  5
100003D4
330
F4861
100
AcDbEntity
  8
VISIBLE
  0
LINE
  5
F4862
102
{ACAD_XDICTIONARY
360
100003D5
102
}
330
1F
100
AcDbEntity
  8
VISIBLE
100
AcDbLine
 10
-10.13935627354955
 20
-19.73751643261065
 30
0.0
 11
-10.13935627354955
 21
-20.0
 31
0.0
  0
LINE
  5
F4863
102
{ACAD_XDICTIONARY
360
100003DA
102
}
330
1F
100
AcDbEntity
  8
VISIBLE
100
AcDbLine
 10
-10.13935627354955
 20
-20.0
 30
0.0
 11
-10.21516538399757
 21
-20.0
 31
0.0
  0
LINE
  5
F4864
102
{ACAD_XDICTIONARY
360
100003DF
102
}
330
1F
100
AcDbEntity
  8
VISIBLE
100
AcDbLine
 10
-10.21516538399757
 20
-20.0
 30
0.0
 11
-10.21516538399757
 21
-19.49971829810321
 31
0.0
  0
LINE
  5
F4865
102
{ACAD_XDICTIONARY
360
100003E4
102
}
330
1F
100
AcDbEntity
  8
VISIBLE
100
AcDbLine
 10
-10.21516538399757
 20
-19.49971829810321
 30
0.0
 11
-10.15352483561787
 21
-19.49971829810321
 31
0.0
  0
LINE
  5
F4866
102
{ACAD_XDICTIONARY
360
100003E9
102
}
330
1F
100
AcDbEntity
  8
VISIBLE
100
AcDbLine
 10
-10.15352483561787
 20
-19.49971829810321
 30
0.0
 11
-10.14125515300201
 21
-19.56822402604178
 31
0.0
  0
LINE
  5
F4867
102
{ACAD_XDICTIONARY
360
100003EE
102
}
330
1F
100
AcDbEntity
  8
VISIBLE
100
AcDbLine
 10
-10.14125515300201
 20
-19.56822402604178
 30
0.0
 11
-10.13760346174729
 21
-19.56822402604178
 31
0.0
  0
POLYLINE
  5
F4868
102
{ACAD_XDICTIONARY
360
100003F6
102
}
330
1F
100
AcDbEntity
  8
VISIBLE
100
AcDb3dPolyline
 66
     1
 10
0.0
 20
0.0
 30
0.0
 70
     8
  0
VERTEX
  5
100003F3
330
F4868
100
AcDbEntity
  8
VISIBLE
100
AcDbVertex
100
AcDb3dPolylineVertex
 10
-10.13760346174729
 20
-19.56822402604178
 30
0.0
 70
    32
  0
VERTEX
  5
100003F4
330
F4868
100
AcDbEntity
  8
VISIBLE
100
AcDbVertex
100
AcDb3dPolylineVertex
 10
-10.1055877699083
 20
-19.53203337019803
 30
0.0
 70
    32
  0
VERTEX
  5
100003F5
330
F4868
100
AcDbEntity
  8
VISIBLE
100
AcDbVertex
100
AcDb3dPolylineVertex
 10
-10.07223818828778
 20
-19.51089247334265
 30
0.0
 70
    32
  0
SEQEND
  5
100003F8
330
F4868
100
AcDbEntity
  8
VISIBLE
  0
POLYLINE
  5
F4869
102
{ACAD_XDICTIONARY
360
100003FC
102
}
330
1F
100
AcDbEntity
  8
VISIBLE
100
AcDb3dPolyline
 66
     1
 10
0.0
 20
0.0
 30
0.0
 70
     8
  0
VERTEX
  5
100003F9
330
F4869
100
AcDbEntity
  8
VISIBLE
100
AcDbVertex
100
AcDb3dPolylineVertex
 10
-10.07223818828778
 20
-19.51089247334265
 30
0.0
 70
    32
  0
VERTEX
  5
100003FA
330
F4869
100
AcDbEntity
  8
VISIBLE
100
AcDbVertex
100
AcDb3dPolylineVertex
 10
-10.02220405853797
 20
-19.49446091438349
 30
0.0
 70
    32
  0
VERTEX
  5
100003FB
330
F4869
100
AcDbEntity
  8
VISIBLE
100
AcDbVertex
100
AcDb3dPolylineVertex
 10
-9.978681858341826
 20
-19.49051603614131
 30
0.0
 70
    32
  0
SEQEND
  5
100003FE
330
F4869
100
AcDbEntity
  8
VISIBLE
  0
POLYLINE
  5
F486A
102
{ACAD_XDICTIONARY
360
10000402
102
}
330
1F
100
AcDbEntity
  8
VISIBLE
100
AcDb3dPolyline
 66
     1
 10
0.0
 20
0.0
 30
0.0
 70
     8
  0
VERTEX
  5
100003FF
330
F486A
100
AcDbEntity
  8
VISIBLE
100
AcDbVertex
100
AcDb3dPolylineVertex
 10
-9.978681858341826
 20
-19.49051603614131
 30
0.0
 70
    32
  0
VERTEX
  5
10000400
330
F486A
100
AcDbEntity
  8
VISIBLE
100
AcDbVertex
100
AcDb3dPolylineVertex
 10
-9.891455866646815
 20
-19.50418937044843
 30
0.0
 70
    32
  0
VERTEX
  5
10000401
330
F486A
100
AcDbEntity
  8
VISIBLE
100
AcDbVertex
100
AcDb3dPolylineVertex
 10
-9.842619842190917
 20
-19.53411722972268
 30
0.0
 70
    32
  0
SEQEND
  5
10000404
330
F486A
100
AcDbEntity
  8
VISIBLE
  0
POLYLINE
  5
F486B
102
{ACAD_XDICTIONARY
360
10000408
102
}
330
1F
100
AcDbEntity
  8
VISIBLE
100
AcDb3dPolyline
 66
     1
 10
0.0
 20
0.0
 30
0.0
 70
     8
  0
VERTEX
  5
10000405
330
F486B
100
AcDbEntity
  8
VISIBLE
100
AcDbVertex
100
AcDb3dPolylineVertex
 10
-9.842619842190917
 20
-19.53411722972268
 30
0.0
 70
    32
  0
VERTEX
  5
10000406
330
F486B
100
AcDbEntity
  8
VISIBLE
100
AcDbVertex
100
AcDb3dPolylineVertex
 10
-9.805810794343326
 20
-19.59937230974689
 30
0.0
 70
    32
  0
VERTEX
  5
10000407
330
F486B
100
AcDbEntity
  8
VISIBLE
100
AcDbVertex
100
AcDb3dPolylineVertex
 10
-9.796973701506902
 20
-19.67368486947812
 30
0.0
 70
    32
  0
SEQEND
  5
1000040A
330
F486B
100
AcDbEntity
  8
VISIBLE
  0
LINE
  5
F486C
102
{ACAD_XDICTIONARY
360
1000040B
102
}
330
1F
100
AcDbEntity
  8
VISIBLE
100
AcDbLine
 10
-9.796973701506902
 20
-19.67368486947812
 30
0.0
 11
-9.796973701506902
 21
-20.0
 31
0.0
  0
LINE
  5
F486D
102
{ACAD_XDICTIONARY
360
1000040D
102
}
330
1F
100
AcDbEntity
  8
VISIBLE
100
AcDbLine
 10
-9.796973701506902
 20
-20.0
 30
0.0
 11
-9.872782811954913
 21
-20.0
 31
0.0
  0
CIRCLE
  5
F486E
102
{ACAD_XDICTIONARY
360
1000040F
102
}
330
1F
100
AcDbEntity
  8
VISIBLE
100
AcDbCircle
 10
0.0
 20
0.0
 30
0.0
 40
2.0
  0
LINE
  5
F486F
102
{ACAD_XDICTIONARY
360
10000411
102
}
330
1F
100
AcDbEntity
  8
VISIBLE
100
AcDbLine
 10
-15.9
 20
2.5
 30
0.0
 11
-14.1
 21
2.5
 31
0.0
  0
LINE
  5
F4870
102
{ACAD_XDICTIONARY
360
10000416
102
}
330
1F
100
AcDbEntity
  8
VISIBLE
100
AcDbLine
 10
-15.9
 20
-2.500000000000001
 30
0.0
 11
-14.1
 21
-2.500000000000001
 31
0.0
  0
LINE
  5
F4871
102
{ACAD_XDICTIONARY
360
1000041B
102
}
330
1F
100
AcDbEntity
  8
VISIBLE
100
AcDbLine
 10
-15.9
 20
2.5
 30
0.0
 11
-15.9
 21
-2.500000000000001
 31
0.0
  0
LINE
  5
F4872
102
{ACAD_XDICTIONARY
360
10000420
102
}
330
1F
100
AcDbEntity
  8
VISIBLE
100
AcDbLine
 10
-14.1
 20
2.5
 30
0.0
 11
-14.1
 21
-2.500000000000001
 31
0.0
  0
LINE
  5
F4873
102
{ACAD_XDICTIONARY
360
10000425
102
}
330
1F
100
AcDbEntity
  8
VISIBLE
100
AcDbLine
 10
15.9
 20
-2.499999999999996
 30
0.0
 11
14.1
 21
-2.499999999999996
 31
0.0
  0
LINE
  5
F4874
102
{ACAD_XDICTIONARY
360
1000042A
102
}
330
1F
100
AcDbEntity
  8
VISIBLE
100
AcDbLine
 10
15.9
 20
2.500000000000004
 30
0.0
 11
14.1
 21
2.500000000000004
 31
0.0
  0
LINE
  5
F4875
102
{ACAD_XDICTIONARY
360
1000042F
102
}
330
1F
100
AcDbEntity
  8
VISIBLE
100
AcDbLine
 10
15.9
 20
-2.499999999999997
 30
0.0
 11
15.9
 21
2.500000000000004
 31
0.0
  0
LINE
  5
F4876
102
{ACAD_XDICTIONARY
360
10000434
102
}
330
1F
100
AcDbEntity
  8
VISIBLE
100
AcDbLine
 10
14.1
 20
-2.499999999999996
 30
0.0
 11
14.1
 21
2.500000000000004
 31
0.0
  0
LINE
  5
F4877
102
{ACAD_XDICTIONARY
360
10000439
102
}
330
1F
100
AcDbEntity
  8
VISIBLE
100
AcDbLine
 10
17.0
 20
-20.0
 30
0.0
 11
-17.0
 21
-20.00000000000001
 31
0.0
  0
LINE
  5
F4878
102
{ACAD_XDICTIONARY
360
1000043E
102
}
330
1F
100
AcDbEntity
  8
VISIBLE
100
AcDbLine
 10
17.0
 20
20.0
 30
0.0
 11
-17.0
 21
20.0
 31
0.0
  0
LINE
  5
F4879
102
{ACAD_XDICTIONARY
360
10000443
102
}
330
1F
100
AcDbEntity
  8
VISIBLE
100
AcDbLine
 10
20.0
 20
-17.0
 30
0.0
 11
20.0
 21
17.0
 31
0.0
  0
LINE
  5
F487A
102
{ACAD_XDICTIONARY
360
10000448
102
}
330
1F
100
AcDbEntity
  8
VISIBLE
100
AcDbLine
 10
-20.0
 20
-17.00000000000001
 30
0.0
 11
-20.0
 21
17.0
 31
0.0
  0
ARC
  5
F487B
102
{ACAD_XDICTIONARY
360
1000044D
102
}
330
1F
100
AcDbEntity
  8
VISIBLE
100
AcDbCircle
 10
17.0
 20
17.0
 30
0.0
 40
3.0
100
AcDbArc
 50
0.0
 51
90.0
  0
ARC
  5
F487C
102
{ACAD_XDICTIONARY
360
1000044F
102
}
330
1F
100
AcDbEntity
  8
VISIBLE
100
AcDbCircle
 10
17.0
 20
-17.0
 30
0.0
 40
3.0
100
AcDbArc
 50
270.0
 51
0.0
  0
ARC
  5
F487D
102
{ACAD_XDICTIONARY
360
10000451
102
}
330
1F
100
AcDbEntity
  8
VISIBLE
100
AcDbCircle
 10
-17.0
 20
-17.00000000000001
 30
0.0
 40
3.0
100
AcDbArc
 50
180.0
 51
270.0
  0
ARC
  5
F487E
102
{ACAD_XDICTIONARY
360
10000453
102
}
330
1F
100
AcDbEntity
  8
VISIBLE
100
AcDbCircle
 10
-17.00000000000001
 20
17.0
 30
0.0
 40
2.999999999999997
100
AcDbArc
 50
89.9999999999999
 51
180.0
  0
LINE
  5
F487F
102
{ACAD_XDICTIONARY
360
10000455
102
}
330
1F
100
AcDbEntity
  8
VISIBLE
100
AcDbLine
 10
-16.34927635367811
 20
-20.0
 30
0.0
 11
-16.57568121147082
 21
-19.40842601673518
 31
0.0
  0
LINE
  5
F4880
102
{ACAD_XDICTIONARY
360
1000045A
102
}
330
1F
100
AcDbEntity
  8
VISIBLE
100
AcDbLine
 10
-16.57568121147082
 20
-19.40842601673518
 30
0.0
 11
-16.57933290272554
 21
-19.40842601673518
 31
0.0
  0
POLYLINE
  5
F4881
102
{ACAD_XDICTIONARY
360
10000462
102
}
330
1F
100
AcDbEntity
  8
VISIBLE
100
AcDb3dPolyline
 66
     1
 10
0.0
 20
0.0
 30
0.0
 70
     8
  0
VERTEX
  5
1000045F
330
F4881
100
AcDbEntity
  8
VISIBLE
100
AcDbVertex
100
AcDb3dPolylineVertex
 10
-16.57933290272554
 20
-19.40842601673518
 30
0.0
 70
    32
  0
VERTEX
  5
10000460
330
F4881
100
AcDbEntity
  8
VISIBLE
100
AcDbVertex
100
AcDb3dPolylineVertex
 10
-16.5741501887886
 20
-19.49545242159297
 30
0.0
 70
    32
  0
VERTEX
  5
10000461
330
F4881
100
AcDbEntity
  8
VISIBLE
100
AcDbVertex
100
AcDb3dPolylineVertex
 10
-16.57290592611723
 20
-19.57552740855122
 30
0.0
 70
    32
  0
SEQEND
  5
10000464
330
F4881
100
AcDbEntity
  8
VISIBLE
  0
LINE
  5
F4882
102
{ACAD_XDICTIONARY
360
10000465
102
}
330
1F
100
AcDbEntity
  8
VISIBLE
100
AcDbLine
 10
-16.57290592611723
 20
-19.57552740855122
 30
0.0
 11
-16.57290592611723
 21
-20.0
 31
0.0
  0
LINE
  5
F4883
102
{ACAD_XDICTIONARY
360
10000467
102
}
330
1F
100
AcDbEntity
  8
VISIBLE
100
AcDbLine
 10
-16.57290592611723
 20
-20.0
 30
0.0
 11
-16.64462514235995
 21
-20.0
 31
0.0
  0
LINE
  5
F4884
102
{ACAD_XDICTIONARY
360
10000469
102
}
330
1F
100
AcDbEntity
  8
VISIBLE
100
AcDbLine
 10
-16.64462514235995
 20
-20.0
 30
0.0
 11
-16.64462514235995
 21
-19.33261690628717
 31
0.0
  0
LINE
  5
F4885
102
{ACAD_XDICTIONARY
360
1000046B
102
}
330
1F
100
AcDbEntity
  8
VISIBLE
100
AcDbLine
 10
-16.64462514235995
 20
-19.33261690628717
 30
0.0
 11
-16.52777102220887
 21
-19.33261690628717
 31
0.0
  0
LINE
  5
F4886
102
{ACAD_XDICTIONARY
360
1000046D
102
}
330
1F
100
AcDbEntity
  8
VISIBLE
100
AcDbLine
 10
-16.52777102220888
 20
-19.33261690628717
 30
0.0
 11
-16.31641113238562
 21
-19.88314587984893
 31
0.0
  0
LINE
  5
F4887
102
{ACAD_XDICTIONARY
360
1000046F
102
}
330
1F
100
AcDbEntity
  8
VISIBLE
100
AcDbLine
 10
-16.31641113238562
 20
-19.88314587984893
 30
0.0
 11
-16.3127594411309
 21
-19.88314587984893
 31
0.0
  0
LINE
  5
F4888
102
{ACAD_XDICTIONARY
360
10000471
102
}
330
1F
100
AcDbEntity
  8
VISIBLE
100
AcDbLine
 10
-16.3127594411309
 20
-19.88314587984893
 30
0.0
 11
-16.09964673950537
 21
-19.33261690628717
 31
0.0
  0
LINE
  5
F4889
102
{ACAD_XDICTIONARY
360
10000473
102
}
330
1F
100
AcDbEntity
  8
VISIBLE
100
AcDbLine
 10
-16.09964673950537
 20
-19.33261690628717
 30
0.0
 11
-15.98366902525543
 21
-19.33261690628717
 31
0.0
  0
ENDSEC
  0
SECTION
  2
OBJECTS
  0
DICTIONARY
  5
C
330
0
100
AcDbDictionary
  3
ACAD_GROUP
350
D
  3
ACAD_LAYOUT
350
1A
  3
ACAD_MATERIAL
350
43
  3
ACAD_MLEADERSTYLE
350
6B
  3
ACAD_MLINESTYLE
350
17
  3
ACAD_PLOTSETTINGS
350
19
  3
ACAD_SCALELIST
350
47
  3
ACAD_VISUALSTYLE
350
2A
  3
ACDBHEADERROUNDTRIPXREC
350
10000477
  3
ACDBVARIABLEDICTIONARY
350
10000498
  3
DWGPROPS
350
1000049F
  3
ONSHAPE_DATA
350
10000001
  0
DICTIONARY
  5
100004A0
330
8
100
AcDbDictionary
280
     1
  3
ACAD_XREC_ROUNDTRIP
360
100004A1
  0
DICTIONARY
  5
10000475
330
1F
100
AcDbDictionary
280
     1
  3
ACAD_SORTENTS
360
10000476
  0
DICTIONARY
  5
10000048
330
F47B3
100
AcDbDictionary
280
     1
  3
BTDETID
360
10000049
  0
DICTIONARY
  5
1000004A
330
F47B4
100
AcDbDictionary
280
     1
  3
BTDETID
360
1000004B
  0
DICTIONARY
  5
1000004F
330
F47B5
100
AcDbDictionary
280
     1
  3
BTDETID
360
10000050
  0
DICTIONARY
  5
10000055
330
F47B6
100
AcDbDictionary
280
     1
  3
BTDETID
360
10000056
  0
DICTIONARY
  5
1000005B
330
F47B7
100
AcDbDictionary
280
     1
  3
BTDETID
360
1000005C
  0
DICTIONARY
  5
10000061
330
F47B8
100
AcDbDictionary
280
     1
  3
BTDETID
360
10000062
  0
DICTIONARY
  5
10000064
330
F47B9
100
AcDbDictionary
280
     1
  3
BTDETID
360
10000065
  0
DICTIONARY
  5
10000069
330
F47BA
100
AcDbDictionary
280
     1
  3
BTDETID
360
1000006A
  0
DICTIONARY
  5
1000006F
330
F47BB
100
AcDbDictionary
280
     1
  3
BTDETID
360
10000070
  0
DICTIONARY
  5
10000075
330
F47BC
100
AcDbDictionary
280
     1
  3
BTDETID
360
10000076
  0
DICTIONARY
  5
1000007B
330
F47BD
100
AcDbDictionary
280
     1
  3
BTDETID
360
1000007C
  0
DICTIONARY
  5
10000081
330
F47BE
100
AcDbDictionary
280
     1
  3
BTDETID
360
10000082
  0
DICTIONARY
  5
10000087
330
F47BF
100
AcDbDictionary
280
     1
  3
BTDETID
360
10000088
  0
DICTIONARY
  5
1000008D
330
F47C0
100
AcDbDictionary
280
     1
  3
BTDETID
360
1000008E
  0
DICTIONARY
  5
10000093
330
F47C1
100
AcDbDictionary
280
     1
  3
BTDETID
360
10000094
  0
DICTIONARY
  5
10000096
330
F47C2
100
AcDbDictionary
280
     1
  3
BTCYLORGN
360
10000099
  3
BTCYLRADIUS
360
1000009A
  3
BTDETID
360
10000097
  3
BTISCYL
360
10000098
  0
DICTIONARY
  5
1000009B
330
F47C3
100
AcDbDictionary
280
     1
  3
BTCYLORGN
360
1000009E
  3
BTCYLRADIUS
360
1000009F
  3
BTDETID
360
1000009C
  3
BTISCYL
360
1000009D
  0
DICTIONARY
  5
100000A0
330
F47C4
100
AcDbDictionary
280
     1
  3
BTCYLORGN
360
100000A3
  3
BTCYLRADIUS
360
100000A4
  3
BTDETID
360
100000A1
  3
BTISCYL
360
100000A2
  0
DICTIONARY
  5
100000A5
330
F47C5
100
AcDbDictionary
280
     1
  3
BTCYLORGN
360
100000A8
  3
BTCYLRADIUS
360
100000A9
  3
BTDETID
360
100000A6
  3
BTISCYL
360
100000A7
  0
DICTIONARY
  5
100000AD
330
F47C6
100
AcDbDictionary
280
     1
  3
BTDETID
360
100000AE
  0
DICTIONARY
  5
100000B3
330
F47C7
100
AcDbDictionary
280
     1
  3
BTDETID
360
100000B4
  0
DICTIONARY
  5
100000B6
330
F47C8
100
AcDbDictionary
280
     1
  3
BTDETID
360
100000B7
  0
DICTIONARY
  5
100000BB
330
F47C9
100
AcDbDictionary
280
     1
  3
BTDETID
360
100000BC
  0
DICTIONARY
  5
100000C1
330
F47CA
100
AcDbDictionary
280
     1
  3
BTDETID
360
100000C2
  0
DICTIONARY
  5
100000C7
330
F47CB
100
AcDbDictionary
280
     1
  3
BTDETID
360
100000C8
  0
DICTIONARY
  5
100000CD
330
F47CC
100
AcDbDictionary
280
     1
  3
BTDETID
360
100000CE
  0
DICTIONARY
  5
100000D0
330
F47CD
100
AcDbDictionary
280
     1
  3
BTCYLORGN
360
100000D3
  3
BTCYLRADIUS
360
100000D4
  3
BTDETID
360
100000D1
  3
BTISCYL
360
100000D2
  0
DICTIONARY
  5
100000D8
330
F47CE
100
AcDbDictionary
280
     1
  3
BTDETID
360
100000D9
  0
DICTIONARY
  5
100000DE
330
F47CF
100
AcDbDictionary
280
     1
  3
BTDETID
360
100000DF
  0
DICTIONARY
  5
100000E4
330
F47D0
100
AcDbDictionary
280
     1
  3
BTDETID
360
100000E5
  0
DICTIONARY
  5
100000E7
330
F47D1
100
AcDbDictionary
280
     1
  3
BTCYLORGN
360
100000EA
  3
BTCYLRADIUS
360
100000EB
  3
BTDETID
360
100000E8
  3
BTISCYL
360
100000E9
  0
DICTIONARY
  5
100000EC
330
F47D2
100
AcDbDictionary
280
     1
  3
BTCYLORGN
360
100000EF
  3
BTCYLRADIUS
360
100000F0
  3
BTDETID
360
100000ED
  3
BTISCYL
360
100000EE
  0
DICTIONARY
  5
100000F4
330
F47D3
100
AcDbDictionary
280
     1
  3
BTDETID
360
100000F5
  0
DICTIONARY
  5
100000FA
330
F47D4
100
AcDbDictionary
280
     1
  3
BTDETID
360
100000FB
  0
DICTIONARY
  5
10000100
330
F47D5
100
AcDbDictionary
280
     1
  3
BTDETID
360
10000101
  0
DICTIONARY
  5
10000106
330
F47D6
100
AcDbDictionary
280
     1
  3
BTDETID
360
10000107
  0
DICTIONARY
  5
1000010C
330
F47D7
100
AcDbDictionary
280
     1
  3
BTDETID
360
1000010D
  0
DICTIONARY
  5
10000112
330
F47D8
100
AcDbDictionary
280
     1
  3
BTDETID
360
10000113
  0
DICTIONARY
  5
10000118
330
F47D9
100
AcDbDictionary
280
     1
  3
BTDETID
360
10000119
  0
DICTIONARY
  5
1000011E
330
F47DA
100
AcDbDictionary
280
     1
  3
BTDETID
360
1000011F
  0
DICTIONARY
  5
10000124
330
F47DB
100
AcDbDictionary
280
     1
  3
BTDETID
360
10000125
  0
DICTIONARY
  5
1000012A
330
F47DC
100
AcDbDictionary
280
     1
  3
BTDETID
360
1000012B
  0
DICTIONARY
  5
10000130
330
F47DD
100
AcDbDictionary
280
     1
  3
BTDETID
360
10000131
  0
DICTIONARY
  5
10000136
330
F47DE
100
AcDbDictionary
280
     1
  3
BTDETID
360
10000137
  0
DICTIONARY
  5
10000139
330
F47DF
100
AcDbDictionary
280
     1
  3
BTCYLORGN
360
1000013C
  3
BTCYLRADIUS
360
1000013D
  3
BTDETID
360
1000013A
  3
BTISCYL
360
1000013B
  0
DICTIONARY
  5
10000141
330
F47E0
100
AcDbDictionary
280
     1
  3
BTDETID
360
10000142
  0
DICTIONARY
  5
10000147
330
F47E1
100
AcDbDictionary
280
     1
  3
BTDETID
360
10000148
  0
DICTIONARY
  5
1000014A
330
F47E2
100
AcDbDictionary
280
     1
  3
BTDETID
360
1000014B
  0
DICTIONARY
  5
1000014C
330
F47E3
100
AcDbDictionary
280
     1
  3
BTDETID
360
1000014D
  0
DICTIONARY
  5
1000014E
330
F47E4
100
AcDbDictionary
280
     1
  3
BTDETID
360
1000014F
  0
DICTIONARY
  5
10000153
330
F47E5
100
AcDbDictionary
280
     1
  3
BTDETID
360
10000154
  0
DICTIONARY
  5
10000159
330
F47E6
100
AcDbDictionary
280
     1
  3
BTDETID
360
1000015A
  0
DICTIONARY
  5
1000015C
330
F47E7
100
AcDbDictionary
280
     1
  3
BTCYLORGN
360
1000015F
  3
BTCYLRADIUS
360
10000160
  3
BTDETID
360
1000015D
  3
BTISCYL
360
1000015E
  0
DICTIONARY
  5
10000164
330
F47E8
100
AcDbDictionary
280
     1
  3
BTDETID
360
10000165
  0
DICTIONARY
  5
1000016A
330
F47E9
100
AcDbDictionary
280
     1
  3
BTDETID
360
1000016B
  0
DICTIONARY
  5
10000170
330
F47EA
100
AcDbDictionary
280
     1
  3
BTDETID
360
10000171
  0
DICTIONARY
  5
10000173
330
F47EB
100
AcDbDictionary
280
     1
  3
BTCYLORGN
360
10000176
  3
BTCYLRADIUS
360
10000177
  3
BTDETID
360
10000174
  3
BTISCYL
360
10000175
  0
DICTIONARY
  5
10000178
330
F47EC
100
AcDbDictionary
280
     1
  3
BTCYLORGN
360
1000017B
  3
BTCYLRADIUS
360
1000017C
  3
BTDETID
360
10000179
  3
BTISCYL
360
1000017A
  0
DICTIONARY
  5
10000180
330
F47ED
100
AcDbDictionary
280
     1
  3
BTDETID
360
10000181
  0
DICTIONARY
  5
10000186
330
F47EE
100
AcDbDictionary
280
     1
  3
BTDETID
360
10000187
  0
DICTIONARY
  5
1000018C
330
F47EF
100
AcDbDictionary
280
     1
  3
BTDETID
360
1000018D
  0
DICTIONARY
  5
10000192
330
F47F0
100
AcDbDictionary
280
     1
  3
BTDETID
360
10000193
  0
DICTIONARY
  5
10000198
330
F47F1
100
AcDbDictionary
280
     1
  3
BTDETID
360
10000199
  0
DICTIONARY
  5
1000019B
330
F47F2
100
AcDbDictionary
280
     1
  3
BTCYLORGN
360
1000019E
  3
BTCYLRADIUS
360
1000019F
  3
BTDETID
360
1000019C
  3
BTISCYL
360
1000019D
  0
DICTIONARY
  5
100001A0
330
F47F3
100
AcDbDictionary
280
     1
  3
BTCYLORGN
360
100001A3
  3
BTCYLRADIUS
360
100001A4
  3
BTDETID
360
100001A1
  3
BTISCYL
360
100001A2
  0
DICTIONARY
  5
100001A5
330
F47F4
100
AcDbDictionary
280
     1
  3
BTCYLORGN
360
100001A8
  3
BTCYLRADIUS
360
100001A9
  3
BTDETID
360
100001A6
  3
BTISCYL
360
100001A7
  0
DICTIONARY
  5
100001AA
330
F47F5
100
AcDbDictionary
280
     1
  3
BTCYLORGN
360
100001AD
  3
BTCYLRADIUS
360
100001AE
  3
BTDETID
360
100001AB
  3
BTISCYL
360
100001AC
  0
DICTIONARY
  5
100001AF
330
F47F6
100
AcDbDictionary
280
     1
  3
BTCYLORGN
360
100001B2
  3
BTCYLRADIUS
360
100001B3
  3
BTDETID
360
100001B0
  3
BTISCYL
360
100001B1
  0
DICTIONARY
  5
100001B4
330
F47F7
100
AcDbDictionary
280
     1
  3
BTCYLORGN
360
100001B7
  3
BTCYLRADIUS
360
100001B8
  3
BTDETID
360
100001B5
  3
BTISCYL
360
100001B6
  0
DICTIONARY
  5
100001B9
330
F47F8
100
AcDbDictionary
280
     1
  3
BTCYLORGN
360
100001BC
  3
BTCYLRADIUS
360
100001BD
  3
BTDETID
360
100001BA
  3
BTISCYL
360
100001BB
  0
DICTIONARY
  5
100001BE
330
F47F9
100
AcDbDictionary
280
     1
  3
BTCYLORGN
360
100001C1
  3
BTCYLRADIUS
360
100001C2
  3
BTDETID
360
100001BF
  3
BTISCYL
360
100001C0
  0
DICTIONARY
  5
100001C6
330
F47FA
100
AcDbDictionary
280
     1
  3
BTDETID
360
100001C7
  0
DICTIONARY
  5
100001CC
330
F47FB
100
AcDbDictionary
280
     1
  3
BTDETID
360
100001CD
  0
DICTIONARY
  5
100001D2
330
F47FC
100
AcDbDictionary
280
     1
  3
BTDETID
360
100001D3
  0
DICTIONARY
  5
100001D5
330
F47FD
100
AcDbDictionary
280
     1
  3
BTCYLORGN
360
100001D8
  3
BTCYLRADIUS
360
100001D9
  3
BTDETID
360
100001D6
  3
BTISCYL
360
100001D7
  0
DICTIONARY
  5
100001DA
330
F47FE
100
AcDbDictionary
280
     1
  3
BTCYLORGN
360
100001DD
  3
BTCYLRADIUS
360
100001DE
  3
BTDETID
360
100001DB
  3
BTISCYL
360
100001DC
  0
DICTIONARY
  5
100001E2
330
F47FF
100
AcDbDictionary
280
     1
  3
BTDETID
360
100001E3
  0
DICTIONARY
  5
100001E8
330
F4800
100
AcDbDictionary
280
     1
  3
BTDETID
360
100001E9
  0
DICTIONARY
  5
100001EB
330
F4801
100
AcDbDictionary
280
     1
  3
BTCYLORGN
360
100001EE
  3
BTCYLRADIUS
360
100001EF
  3
BTDETID
360
100001EC
  3
BTISCYL
360
100001ED
  0
DICTIONARY
  5
100001F0
330
F4802
100
AcDbDictionary
280
     1
  3
BTCYLORGN
360
100001F3
  3
BTCYLRADIUS
360
100001F4
  3
BTDETID
360
100001F1
  3
BTISCYL
360
100001F2
  0
DICTIONARY
  5
100001F8
330
F4803
100
AcDbDictionary
280
     1
  3
BTDETID
360
100001F9
  0
DICTIONARY
  5
100001FE
330
F4804
100
AcDbDictionary
280
     1
  3
BTDETID
360
100001FF
  0
DICTIONARY
  5
10000204
330
F4805
100
AcDbDictionary
280
     1
  3
BTDETID
360
10000205
  0
DICTIONARY
  5
1000020A
330
F4806
100
AcDbDictionary
280
     1
  3
BTDETID
360
1000020B
  0
DICTIONARY
  5
1000020D
330
F4807
100
AcDbDictionary
280
     1
  3
BTDETID
360
1000020E
  0
DICTIONARY
  5
10000212
330
F4808
100
AcDbDictionary
280
     1
  3
BTDETID
360
10000213
  0
DICTIONARY
  5
10000218
330
F4809
100
AcDbDictionary
280
     1
  3
BTDETID
360
10000219
  0
DICTIONARY
  5
1000021E
330
F480A
100
AcDbDictionary
280
     1
  3
BTDETID
360
1000021F
  0
DICTIONARY
  5
10000224
330
F480B
100
AcDbDictionary
280
     1
  3
BTDETID
360
10000225
  0
DICTIONARY
  5
1000022A
330
F480C
100
AcDbDictionary
280
     1
  3
BTDETID
360
1000022B
  0
DICTIONARY
  5
10000230
330
F480D
100
AcDbDictionary
280
     1
  3
BTDETID
360
10000231
  0
DICTIONARY
  5
10000233
330
F480E
100
AcDbDictionary
280
     1
  3
BTCYLORGN
360
10000236
  3
BTCYLRADIUS
360
10000237
  3
BTDETID
360
10000234
  3
BTISCYL
360
10000235
  0
DICTIONARY
  5
10000238
330
F480F
100
AcDbDictionary
280
     1
  3
BTDETID
360
10000239
  0
DICTIONARY
  5
1000023A
330
F4810
100
AcDbDictionary
280
     1
  3
BTDETID
360
1000023B
  0
DICTIONARY
  5
1000023C
330
F4811
100
AcDbDictionary
280
     1
  3
BTDETID
360
1000023D
  0
DICTIONARY
  5
1000023E
330
F4812
100
AcDbDictionary
280
     1
  3
BTDETID
360
1000023F
  0
DICTIONARY
  5
10000240
330
F4813
100
AcDbDictionary
280
     1
  3
BTDETID
360
10000241
  0
DICTIONARY
  5
10000242
330
F4814
100
AcDbDictionary
280
     1
  3
BTDETID
360
10000243
  0
DICTIONARY
  5
10000244
330
F4815
100
AcDbDictionary
280
     1
  3
BTDETID
360
10000245
  0
DICTIONARY
  5
10000246
330
F4816
100
AcDbDictionary
280
     1
  3
BTDETID
360
10000247
  0
DICTIONARY
  5
1000024B
330
F4817
100
AcDbDictionary
280
     1
  3
BTDETID
360
1000024C
  0
DICTIONARY
  5
10000251
330
F4818
100
AcDbDictionary
280
     1
  3
BTDETID
360
10000252
  0
DICTIONARY
  5
10000257
330
F4819
100
AcDbDictionary
280
     1
  3
BTDETID
360
10000258
  0
DICTIONARY
  5
1000025D
330
F481A
100
AcDbDictionary
280
     1
  3
BTDETID
360
1000025E
  0
DICTIONARY
  5
10000260
330
F481B
100
AcDbDictionary
280
     1
  3
BTCYLORGN
360
10000263
  3
BTCYLRADIUS
360
10000264
  3
BTDETID
360
10000261
  3
BTISCYL
360
10000262
  0
DICTIONARY
  5
10000265
330
F481C
100
AcDbDictionary
280
     1
  3
BTCYLORGN
360
10000268
  3
BTCYLRADIUS
360
10000269
  3
BTDETID
360
10000266
  3
BTISCYL
360
10000267
  0
DICTIONARY
  5
1000026A
330
F481D
100
AcDbDictionary
280
     1
  3
BTCYLORGN
360
1000026D
  3
BTCYLRADIUS
360
1000026E
  3
BTDETID
360
1000026B
  3
BTISCYL
360
1000026C
  0
DICTIONARY
  5
1000026F
330
F481E
100
AcDbDictionary
280
     1
  3
BTCYLORGN
360
10000272
  3
BTCYLRADIUS
360
10000273
  3
BTDETID
360
10000270
  3
BTISCYL
360
10000271
  0
DICTIONARY
  5
10000274
330
F481F
100
AcDbDictionary
280
     1
  3
BTCYLORGN
360
10000277
  3
BTCYLRADIUS
360
10000278
  3
BTDETID
360
10000275
  3
BTISCYL
360
10000276
  0
DICTIONARY
  5
10000279
330
F4820
100
AcDbDictionary
280
     1
  3
BTCYLORGN
360
1000027C
  3
BTCYLRADIUS
360
1000027D
  3
BTDETID
360
1000027A
  3
BTISCYL
360
1000027B
  0
DICTIONARY
  5
1000027E
330
F4821
100
AcDbDictionary
280
     1
  3
BTCYLORGN
360
10000281
  3
BTCYLRADIUS
360
10000282
  3
BTDETID
360
1000027F
  3
BTISCYL
360
10000280
  0
DICTIONARY
  5
10000283
330
F4822
100
AcDbDictionary
280
     1
  3
BTCYLORGN
360
10000286
  3
BTCYLRADIUS
360
10000287
  3
BTDETID
360
10000284
  3
BTISCYL
360
10000285
  0
DICTIONARY
  5
10000288
330
F4823
100
AcDbDictionary
280
     1
  3
BTCYLORGN
360
1000028B
  3
BTCYLRADIUS
360
1000028C
  3
BTDETID
360
10000289
  3
BTISCYL
360
1000028A
  0
DICTIONARY
  5
1000028D
330
F4824
100
AcDbDictionary
280
     1
  3
BTCYLORGN
360
10000290
  3
BTCYLRADIUS
360
10000291
  3
BTDETID
360
1000028E
  3
BTISCYL
360
1000028F
  0
DICTIONARY
  5
10000292
330
F4825
100
AcDbDictionary
280
     1
  3
BTCYLORGN
360
10000295
  3
BTCYLRADIUS
360
10000296
  3
BTDETID
360
10000293
  3
BTISCYL
360
10000294
  0
DICTIONARY
  5
10000297
330
F4826
100
AcDbDictionary
280
     1
  3
BTCYLORGN
360
1000029A
  3
BTCYLRADIUS
360
1000029B
  3
BTDETID
360
10000298
  3
BTISCYL
360
10000299
  0
DICTIONARY
  5
1000029C
330
F4827
100
AcDbDictionary
280
     1
  3
BTCYLORGN
360
1000029F
  3
BTCYLRADIUS
360
100002A0
  3
BTDETID
360
1000029D
  3
BTISCYL
360
1000029E
  0
DICTIONARY
  5
100002A1
330
F4828
100
AcDbDictionary
280
     1
  3
BTCYLORGN
360
100002A4
  3
BTCYLRADIUS
360
100002A5
  3
BTDETID
360
100002A2
  3
BTISCYL
360
100002A3
  0
DICTIONARY
  5
100002A6
330
F4829
100
AcDbDictionary
280
     1
  3
BTCYLORGN
360
100002A9
  3
BTCYLRADIUS
360
100002AA
  3
BTDETID
360
100002A7
  3
BTISCYL
360
100002A8
  0
DICTIONARY
  5
100002AB
330
F482A
100
AcDbDictionary
280
     1
  3
BTCYLORGN
360
100002AE
  3
BTCYLRADIUS
360
100002AF
  3
BTDETID
360
100002AC
  3
BTISCYL
360
100002AD
  0
DICTIONARY
  5
100002B0
330
F482B
100
AcDbDictionary
280
     1
  3
BTCYLORGN
360
100002B3
  3
BTCYLRADIUS
360
100002B4
  3
BTDETID
360
100002B1
  3
BTISCYL
360
100002B2
  0
DICTIONARY
  5
100002B5
330
F482C
100
AcDbDictionary
280
     1
  3
BTCYLORGN
360
100002B8
  3
BTCYLRADIUS
360
100002B9
  3
BTDETID
360
100002B6
  3
BTISCYL
360
100002B7
  0
DICTIONARY
  5
100002BA
330
F482D
100
AcDbDictionary
280
     1
  3
BTCYLORGN
360
100002BD
  3
BTCYLRADIUS
360
100002BE
  3
BTDETID
360
100002BB
  3
BTISCYL
360
100002BC
  0
DICTIONARY
  5
100002BF
330
F482E
100
AcDbDictionary
280
     1
  3
BTCYLORGN
360
100002C2
  3
BTCYLRADIUS
360
100002C3
  3
BTDETID
360
100002C0
  3
BTISCYL
360
100002C1
  0
DICTIONARY
  5
100002C4
330
F482F
100
AcDbDictionary
280
     1
  3
BTCYLORGN
360
100002C7
  3
BTCYLRADIUS
360
100002C8
  3
BTDETID
360
100002C5
  3
BTISCYL
360
100002C6
  0
DICTIONARY
  5
100002C9
330
F4830
100
AcDbDictionary
280
     1
  3
BTCYLORGN
360
100002CC
  3
BTCYLRADIUS
360
100002CD
  3
BTDETID
360
100002CA
  3
BTISCYL
360
100002CB
  0
DICTIONARY
  5
100002CE
330
F4831
100
AcDbDictionary
280
     1
  3
BTCYLORGN
360
100002D1
  3
BTCYLRADIUS
360
100002D2
  3
BTDETID
360
100002CF
  3
BTISCYL
360
100002D0
  0
DICTIONARY
  5
100002D3
330
F4832
100
AcDbDictionary
280
     1
  3
BTCYLORGN
360
100002D6
  3
BTCYLRADIUS
360
100002D7
  3
BTDETID
360
100002D4
  3
BTISCYL
360
100002D5
  0
DICTIONARY
  5
100002D8
330
F4833
100
AcDbDictionary
280
     1
  3
BTCYLORGN
360
100002DB
  3
BTCYLRADIUS
360
100002DC
  3
BTDETID
360
100002D9
  3
BTISCYL
360
100002DA
  0
DICTIONARY
  5
100002DD
330
F4834
100
AcDbDictionary
280
     1
  3
BTCYLORGN
360
100002E0
  3
BTCYLRADIUS
360
100002E1
  3
BTDETID
360
100002DE
  3
BTISCYL
360
100002DF
  0
DICTIONARY
  5
100002E5
330
F4835
100
AcDbDictionary
280
     1
  3
BTDETID
360
100002E6
  0
DICTIONARY
  5
100002EB
330
F4836
100
AcDbDictionary
280
     1
  3
BTDETID
360
100002EC
  0
DICTIONARY
  5
100002F1
330
F4837
100
AcDbDictionary
280
     1
  3
BTDETID
360
100002F2
  0
DICTIONARY
  5
100002F7
330
F4838
100
AcDbDictionary
280
     1
  3
BTDETID
360
100002F8
  0
DICTIONARY
  5
100002FD
330
F4839
100
AcDbDictionary
280
     1
  3
BTDETID
360
100002FE
  0
DICTIONARY
  5
10000303
330
F483A
100
AcDbDictionary
280
     1
  3
BTDETID
360
10000304
  0
DICTIONARY
  5
10000309
330
F483B
100
AcDbDictionary
280
     1
  3
BTDETID
360
1000030A
  0
DICTIONARY
  5
1000030F
330
F483C
100
AcDbDictionary
280
     1
  3
BTDETID
360
10000310
  0
DICTIONARY
  5
10000315
330
F483D
100
AcDbDictionary
280
     1
  3
BTDETID
360
10000316
  0
DICTIONARY
  5
1000031B
330
F483E
100
AcDbDictionary
280
     1
  3
BTDETID
360
1000031C
  0
DICTIONARY
  5
10000321
330
F483F
100
AcDbDictionary
280
     1
  3
BTDETID
360
10000322
  0
DICTIONARY
  5
10000327
330
F4840
100
AcDbDictionary
280
     1
  3
BTDETID
360
10000328
  0
DICTIONARY
  5
1000032D
330
F4841
100
AcDbDictionary
280
     1
  3
BTDETID
360
1000032E
  0
DICTIONARY
  5
10000333
330
F4842
100
AcDbDictionary
280
     1
  3
BTDETID
360
10000334
  0
DICTIONARY
  5
10000339
330
F4843
100
AcDbDictionary
280
     1
  3
BTDETID
360
1000033A
  0
DICTIONARY
  5
1000033F
330
F4844
100
AcDbDictionary
280
     1
  3
BTDETID
360
10000340
  0
DICTIONARY
  5
10000345
330
F4845
100
AcDbDictionary
280
     1
  3
BTDETID
360
10000346
  0
DICTIONARY
  5
10000348
330
F4846
100
AcDbDictionary
280
     1
  3
BTDETID
360
10000349
  0
DICTIONARY
  5
1000034D
330
F4847
100
AcDbDictionary
280
     1
  3
BTDETID
360
1000034E
  0
DICTIONARY
  5
10000350
330
F4848
100
AcDbDictionary
280
     1
  3
BTCYLORGN
360
10000353
  3
BTCYLRADIUS
360
10000354
  3
BTDETID
360
10000351
  3
BTISCYL
360
10000352
  0
DICTIONARY
  5
10000358
330
F4849
100
AcDbDictionary
280
     1
  3
BTDETID
360
10000359
  0
DICTIONARY
  5
1000035B
330
F484A
100
AcDbDictionary
280
     1
  3
BTCYLORGN
360
1000035E
  3
BTCYLRADIUS
360
1000035F
  3
BTDETID
360
1000035C
  3
BTISCYL
360
1000035D
  0
DICTIONARY
  5
10000360
330
F484B
100
AcDbDictionary
280
     1
  3
BTCYLORGN
360
10000363
  3
BTCYLRADIUS
360
10000364
  3
BTDETID
360
10000361
  3
BTISCYL
360
10000362
  0
DICTIONARY
  5
10000365
330
F484C
100
AcDbDictionary
280
     1
  3
BTCYLORGN
360
10000368
  3
BTCYLRADIUS
360
10000369
  3
BTDETID
360
10000366
  3
BTISCYL
360
10000367
  0
DICTIONARY
  5
1000036A
330
F484D
100
AcDbDictionary
280
     1
  3
BTCYLORGN
360
1000036D
  3
BTCYLRADIUS
360
1000036E
  3
BTDETID
360
1000036B
  3
BTISCYL
360
1000036C
  0
DICTIONARY
  5
10000372
330
F484E
100
AcDbDictionary
280
     1
  3
BTDETID
360
10000373
  0
DICTIONARY
  5
10000378
330
F484F
100
AcDbDictionary
280
     1
  3
BTDETID
360
10000379
  0
DICTIONARY
  5
1000037B
330
F4850
100
AcDbDictionary
280
     1
  3
BTCYLORGN
360
1000037E
  3
BTCYLRADIUS
360
1000037F
  3
BTDETID
360
1000037C
  3
BTISCYL
360
1000037D
  0
DICTIONARY
  5
10000383
330
F4851
100
AcDbDictionary
280
     1
  3
BTDETID
360
10000384
  0
DICTIONARY
  5
10000389
330
F4852
100
AcDbDictionary
280
     1
  3
BTDETID
360
1000038A
  0
DICTIONARY
  5
1000038C
330
F4853
100
AcDbDictionary
280
     1
  3
BTDETID
360
1000038D
  0
DICTIONARY
  5
1000038E
330
F4854
100
AcDbDictionary
280
     1
  3
BTDETID
360
1000038F
  0
DICTIONARY
  5
10000390
330
F4855
100
AcDbDictionary
280
     1
  3
BTDETID
360
10000391
  0
DICTIONARY
  5
10000395
330
F4856
100
AcDbDictionary
280
     1
  3
BTDETID
360
10000396
  0
DICTIONARY
  5
10000398
330
F4857
100
AcDbDictionary
280
     1
  3
BTCYLORGN
360
1000039B
  3
BTCYLRADIUS
360
1000039C
  3
BTDETID
360
10000399
  3
BTISCYL
360
1000039A
  0
DICTIONARY
  5
100003A0
330
F4858
100
AcDbDictionary
280
     1
  3
BTDETID
360
100003A1
  0
DICTIONARY
  5
100003A6
330
F4859
100
AcDbDictionary
280
     1
  3
BTDETID
360
100003A7
  0
DICTIONARY
  5
100003A9
330
F485A
100
AcDbDictionary
280
     1
  3
BTCYLORGN
360
100003AC
  3
BTCYLRADIUS
360
100003AD
  3
BTDETID
360
100003AA
  3
BTISCYL
360
100003AB
  0
DICTIONARY
  5
100003AE
330
F485B
100
AcDbDictionary
280
     1
  3
BTCYLORGN
360
100003B1
  3
BTCYLRADIUS
360
100003B2
  3
BTDETID
360
100003AF
  3
BTISCYL
360
100003B0
  0
DICTIONARY
  5
100003B3
330
F485C
100
AcDbDictionary
280
     1
  3
BTCYLORGN
360
100003B6
  3
BTCYLRADIUS
360
100003B7
  3
BTDETID
360
100003B4
  3
BTISCYL
360
100003B5
  0
DICTIONARY
  5
100003B8
330
F485D
100
AcDbDictionary
280
     1
  3
BTCYLORGN
360
100003BB
  3
BTCYLRADIUS
360
100003BC
  3
BTDETID
360
100003B9
  3
BTISCYL
360
100003BA
  0
DICTIONARY
  5
100003C0
330
F485E
100
AcDbDictionary
280
     1
  3
BTDETID
360
100003C1
  0
DICTIONARY
  5
100003C6
330
F485F
100
AcDbDictionary
280
     1
  3
BTDETID
360
100003C7
  0
DICTIONARY
  5
100003CC
330
F4860
100
AcDbDictionary
280
     1
  3
BTDETID
360
100003CD
  0
DICTIONARY
  5
100003D2
330
F4861
100
AcDbDictionary
280
     1
  3
BTDETID
360
100003D3
  0
DICTIONARY
  5
100003D5
330
F4862
100
AcDbDictionary
280
     1
  3
BTCYLORGN
360
100003D8
  3
BTCYLRADIUS
360
100003D9
  3
BTDETID
360
100003D6
  3
BTISCYL
360
100003D7
  0
DICTIONARY
  5
100003DA
330
F4863
100
AcDbDictionary
280
     1
  3
BTCYLORGN
360
100003DD
  3
BTCYLRADIUS
360
100003DE
  3
BTDETID
360
100003DB
  3
BTISCYL
360
100003DC
  0
DICTIONARY
  5
100003DF
330
F4864
100
AcDbDictionary
280
     1
  3
BTCYLORGN
360
100003E2
  3
BTCYLRADIUS
360
100003E3
  3
BTDETID
360
100003E0
  3
BTISCYL
360
100003E1
  0
DICTIONARY
  5
100003E4
330
F4865
100
AcDbDictionary
280
     1
  3
BTCYLORGN
360
100003E7
  3
BTCYLRADIUS
360
100003E8
  3
BTDETID
360
100003E5
  3
BTISCYL
360
100003E6
  0
DICTIONARY
  5
100003E9
330
F4866
100
AcDbDictionary
280
     1
  3
BTCYLORGN
360
100003EC
  3
BTCYLRADIUS
360
100003ED
  3
BTDETID
360
100003EA
  3
BTISCYL
360
100003EB
  0
DICTIONARY
  5
100003EE
330
F4867
100
AcDbDictionary
280
     1
  3
BTCYLORGN
360
100003F1
  3
BTCYLRADIUS
360
100003F2
  3
BTDETID
360
100003EF
  3
BTISCYL
360
100003F0
  0
DICTIONARY
  5
100003F6
330
F4868
100
AcDbDictionary
280
     1
  3
BTDETID
360
100003F7
  0
DICTIONARY
  5
100003FC
330
F4869
100
AcDbDictionary
280
     1
  3
BTDETID
360
100003FD
  0
DICTIONARY
  5
10000402
330
F486A
100
AcDbDictionary
280
     1
  3
BTDETID
360
10000403
  0
DICTIONARY
  5
10000408
330
F486B
100
AcDbDictionary
280
     1
  3
BTDETID
360
10000409
  0
DICTIONARY
  5
1000040B
330
F486C
100
AcDbDictionary
280
     1
  3
BTDETID
360
1000040C
  0
DICTIONARY
  5
1000040D
330
F486D
100
AcDbDictionary
280
     1
  3
BTDETID
360
1000040E
  0
DICTIONARY
  5
1000040F
330
F486E
100
AcDbDictionary
280
     1
  3
BTDETID
360
10000410
  0
DICTIONARY
  5
10000411
330
F486F
100
AcDbDictionary
280
     1
  3
BTCYLORGN
360
10000414
  3
BTCYLRADIUS
360
10000415
  3
BTDETID
360
10000412
  3
BTISCYL
360
10000413
  0
DICTIONARY
  5
10000416
330
F4870
100
AcDbDictionary
280
     1
  3
BTCYLORGN
360
10000419
  3
BTCYLRADIUS
360
1000041A
  3
BTDETID
360
10000417
  3
BTISCYL
360
10000418
  0
DICTIONARY
  5
1000041B
330
F4871
100
AcDbDictionary
280
     1
  3
BTCYLORGN
360
1000041E
  3
BTCYLRADIUS
360
1000041F
  3
BTDETID
360
1000041C
  3
BTISCYL
360
1000041D
  0
DICTIONARY
  5
10000420
330
F4872
100
AcDbDictionary
280
     1
  3
BTCYLORGN
360
10000423
  3
BTCYLRADIUS
360
10000424
  3
BTDETID
360
10000421
  3
BTISCYL
360
10000422
  0
DICTIONARY
  5
10000425
330
F4873
100
AcDbDictionary
280
     1
  3
BTCYLORGN
360
10000428
  3
BTCYLRADIUS
360
10000429
  3
BTDETID
360
10000426
  3
BTISCYL
360
10000427
  0
DICTIONARY
  5
1000042A
330
F4874
100
AcDbDictionary
280
     1
  3
BTCYLORGN
360
1000042D
  3
BTCYLRADIUS
360
1000042E
  3
BTDETID
360
1000042B
  3
BTISCYL
360
1000042C
  0
DICTIONARY
  5
1000042F
330
F4875
100
AcDbDictionary
280
     1
  3
BTCYLORGN
360
10000432
  3
BTCYLRADIUS
360
10000433
  3
BTDETID
360
10000430
  3
BTISCYL
360
10000431
  0
DICTIONARY
  5
10000434
330
F4876
100
AcDbDictionary
280
     1
  3
BTCYLORGN
360
10000437
  3
BTCYLRADIUS
360
10000438
  3
BTDETID
360
10000435
  3
BTISCYL
360
10000436
  0
DICTIONARY
  5
10000439
330
F4877
100
AcDbDictionary
280
     1
  3
BTCYLORGN
360
1000043C
  3
BTCYLRADIUS
360
1000043D
  3
BTDETID
360
1000043A
  3
BTISCYL
360
1000043B
  0
DICTIONARY
  5
1000043E
330
F4878
100
AcDbDictionary
280
     1
  3
BTCYLORGN
360
10000441
  3
BTCYLRADIUS
360
10000442
  3
BTDETID
360
1000043F
  3
BTISCYL
360
10000440
  0
DICTIONARY
  5
10000443
330
F4879
100
AcDbDictionary
280
     1
  3
BTCYLORGN
360
10000446
  3
BTCYLRADIUS
360
10000447
  3
BTDETID
360
10000444
  3
BTISCYL
360
10000445
  0
DICTIONARY
  5
10000448
330
F487A
100
AcDbDictionary
280
     1
  3
BTCYLORGN
360
1000044B
  3
BTCYLRADIUS
360
1000044C
  3
BTDETID
360
10000449
  3
BTISCYL
360
1000044A
  0
DICTIONARY
  5
1000044D
330
F487B
100
AcDbDictionary
280
     1
  3
BTDETID
360
1000044E
  0
DICTIONARY
  5
1000044F
330
F487C
100
AcDbDictionary
280
     1
  3
BTDETID
360
10000450
  0
DICTIONARY
  5
10000451
330
F487D
100
AcDbDictionary
280
     1
  3
BTDETID
360
10000452
  0
DICTIONARY
  5
10000453
330
F487E
100
AcDbDictionary
280
     1
  3
BTDETID
360
10000454
  0
DICTIONARY
  5
10000455
330
F487F
100
AcDbDictionary
280
     1
  3
BTCYLORGN
360
10000458
  3
BTCYLRADIUS
360
10000459
  3
BTDETID
360
10000456
  3
BTISCYL
360
10000457
  0
DICTIONARY
  5
1000045A
330
F4880
100
AcDbDictionary
280
     1
  3
BTCYLORGN
360
1000045D
  3
BTCYLRADIUS
360
1000045E
  3
BTDETID
360
1000045B
  3
BTISCYL
360
1000045C
  0
DICTIONARY
  5
10000462
330
F4881
100
AcDbDictionary
280
     1
  3
BTDETID
360
10000463
  0
DICTIONARY
  5
10000465
330
F4882
100
AcDbDictionary
280
     1
  3
BTDETID
360
10000466
  0
DICTIONARY
  5
10000467
330
F4883
100
AcDbDictionary
280
     1
  3
BTDETID
360
10000468
  0
DICTIONARY
  5
10000469
330
F4884
100
AcDbDictionary
280
     1
  3
BTDETID
360
1000046A
  0
DICTIONARY
  5
1000046B
330
F4885
100
AcDbDictionary
280
     1
  3
BTDETID
360
1000046C
  0
DICTIONARY
  5
1000046D
330
F4886
100
AcDbDictionary
280
     1
  3
BTDETID
360
1000046E
  0
DICTIONARY
  5
1000046F
330
F4887
100
AcDbDictionary
280
     1
  3
BTDETID
360
10000470
  0
DICTIONARY
  5
10000471
330
F4888
100
AcDbDictionary
280
     1
  3
BTDETID
360
10000472
  0
DICTIONARY
  5
10000473
330
F4889
100
AcDbDictionary
280
     1
  3
BTDETID
360
10000474
  0
DICTIONARY
  5
D
102
{ACAD_REACTORS
330
C
102
}
330
C
100
AcDbDictionary
  0
DICTIONARY
  5
1A
102
{ACAD_REACTORS
330
C
102
}
330
C
100
AcDbDictionary
  0
DICTIONARY
  5
43
102
{ACAD_REACTORS
330
C
102
}
330
C
100
AcDbDictionary
  3
BYBLOCK
350
45
  3
BYLAYER
350
44
  3
GLOBAL
350
46
  0
DICTIONARY
  5
6B
102
{ACAD_REACTORS
330
C
102
}
330
C
100
AcDbDictionary
  3
STANDARD
350
6C
  0
DICTIONARY
  5
17
102
{ACAD_REACTORS
330
C
102
}
330
C
100
AcDbDictionary
  3
STANDARD
350
18
  0
DICTIONARY
  5
19
102
{ACAD_REACTORS
330
C
102
}
330
C
100
AcDbDictionary
  0
DICTIONARY
  5
47
102
{ACAD_REACTORS
330
C
102
}
330
C
100
AcDbDictionary
  3
SCALE100_1
350
10000023
  3
SCALE10_1
350
1000001D
  3
SCALE12_1
350
1000001E
  3
SCALE16_1
350
1000001F
  3
SCALE1_1
350
10000006
  3
SCALE1_10
350
1000000D
  3
SCALE1_100
350
10000016
  3
SCALE1_12
350
1000000E
  3
SCALE1_16
350
1000000F
  3
SCALE1_2
350
10000007
  3
SCALE1_20
350
10000010
  3
SCALE1_25
350
10000011
  3
SCALE1_3
350
10000008
  3
SCALE1_32
350
10000012
  3
SCALE1_4
350
10000009
  3
SCALE1_40
350
10000013
  3
SCALE1_5
350
1000000A
  3
SCALE1_50
350
10000014
  3
SCALE1_6
350
1000000B
  3
SCALE1_8
350
1000000C
  3
SCALE1_80
350
10000015
  3
SCALE20_1
350
10000020
  3
SCALE2_1
350
10000017
  3
SCALE32_1
350
10000021
  3
SCALE3_1
350
10000018
  3
SCALE4_1
350
10000019
  3
SCALE50_1
350
10000022
  3
SCALE5_1
350
1000001A
  3
SCALE6_1
350
1000001B
  3
SCALE8_1
350
1000001C
  0
DICTIONARY
  5
2A
102
{ACAD_REACTORS
330
C
102
}
330
C
100
AcDbDictionary
  3
2DWIREFRAME
350
2F
  3
BASIC
350
32
  3
BRIGHTEN
350
36
  3
COLORCHANGE
350
3A
  3
CONCEPTUAL
350
34
  3
DIM
350
35
  3
EDGECOLOROFF
350
3D
  3
FACEPATTERN
350
39
  3
FLAT
350
2B
  3
FLATWITHEDGES
350
2C
  3
GOURAUD
350
2D
  3
GOURAUDWITHEDGES
350
2E
  3
HIDDEN
350
31
  3
JITTEROFF
350
3B
  3
LINEPATTERN
350
38
  3
OVERHANGOFF
350
3C
  3
REALISTIC
350
33
  3
SHADED
350
42
  3
SHADED_WITH_EDGES
350
41
  3
SHADES_OF_GRAY
350
3E
  3
SKETCHY
350
3F
  3
THICKEN
350
37
  3
WIREFRAME
350
30
  3
X-RAY
350
40
  0
DICTIONARY
  5
10000477
102
{ACAD_REACTORS
330
C
102
}
330
C
100
AcDbDictionary
  3
CEPSNID
350
10000481
  3
CEPSNTYPE
350
10000480
  3
DIMSTYLEDATA
350
10000497
  3
FINGERPRINTGUID
350
10000482
  3
HYPERLINKBASE
350
1000047A
  3
INSUNITS
350
1000047F
  3
LAYOUTDICT
350
1000047C
  3
LWETCUNION
350
1000047E
  3
PLOTSETDICT
350
1000047D
  3
PSVPSCALE
350
10000484
  3
PUCSBASE
350
10000487
  3
PUCSORGBACK
350
1000048D
  3
PUCSORGBOTTOM
350
10000489
  3
PUCSORGFRONT
350
1000048C
  3
PUCSORGLEFT
350
1000048A
  3
PUCSORGRIGHT
350
1000048B
  3
PUCSORGTOP
350
10000488
  3
PUCSORTHOREF
350
10000485
  3
PUCSORTHOVIEW
350
10000486
  3
STYLESHEET
350
1000047B
  3
TSTACKALIGN
350
10000478
  3
TSTACKSIZE
350
10000479
  3
UCSBASE
350
10000490
  3
UCSORGBACK
350
10000496
  3
UCSORGBOTTOM
350
10000492
  3
UCSORGFRONT
350
10000495
  3
UCSORGLEFT
350
10000493
  3
UCSORGRIGHT
350
10000494
  3
UCSORGTOP
350
10000491
  3
UCSORTHOREF
350
1000048E
  3
UCSORTHOVIEW
350
1000048F
  3
VERSIONGUID
350
10000483
  0
DICTIONARY
  5
10000498
102
{ACAD_REACTORS
330
C
102
}
330
C
100
AcDbDictionary
  3
CANNOSCALE
350
100004A2
  3
CMLEADERSTYLE
350
1000049A
  3
CTABLESTYLE
350
10000499
  3
DIMASSOC
350
1000049D
  3
HIDETEXT
350
1000049E
  3
MSLTSCALE
350
100004A3
  0
XRECORD
  5
1000049F
102
{ACAD_REACTORS
330
C
102
}
330
C
100
AcDbXrecord
  1
DWGPROPS COOKIE
  2

  3

  4

  6
File was created by BTDwgCreate
  7

  8

  9

300
=
301
=
302
=
303
=
304
=
305
=
306
=
307
=
308
=
309
=
 40
0.0
 41
2457827.617719907
 42
2457827.617719907
  1

 90
        0
  0
DICTIONARY
  5
10000001
102
{ACAD_REACTORS
330
C
102
}
330
C
100
AcDbDictionary
280
     1
  3
DIM_UNITS
360
10000003
  3
DWGGEN_VERSION
360
10000002
  3
FIRST_ANGLE
360
10000005
  0
XRECORD
  5
100004A1
102
{ACAD_REACTORS
330
100004A0
102
}
330
100004A0
100
AcDbXrecord
102
VTR_0.000_0.000_1.000_1.000_GRIDDISPLAY
 70
     3
102
VTR_0.000_0.000_1.000_1.000_GRIDMAJOR
 70
     5
102
VTR_0.000_0.000_1.000_1.000_DEFAULTLIGHTING
280
     1
102
VTR_0.000_0.000_1.000_1.000_DEFAULTLIGHTINGTYPE
 70
     1
102
VTR_0.000_0.000_1.000_1.000_BRIGHTNESS
141
0.0
102
VTR_0.000_0.000_1.000_1.000_CONTRAST
142
0.0
  0
SORTENTSTABLE
  5
10000476
102
{ACAD_REACTORS
330
10000475
102
}
330
10000475
100
AcDbSortentsTable
330
1F
  0
XRECORD
  5
10000049
102
{ACAD_REACTORS
330
10000048
102
}
330
10000048
100
AcDbXrecord
1000
KLdH
  0
XRECORD
  5
1000004B
102
{ACAD_REACTORS
330
1000004A
102
}
330
1000004A
100
AcDbXrecord
1000
KLZH
  0
XRECORD
  5
10000050
102
{ACAD_REACTORS
330
1000004F
102
}
330
1000004F
100
AcDbXrecord
1000
KLVH
  0
XRECORD
  5
10000056
102
{ACAD_REACTORS
330
10000055
102
}
330
10000055
100
AcDbXrecord
1000
KLRH
  0
XRECORD
  5
1000005C
102
{ACAD_REACTORS
330
1000005B
102
}
330
1000005B
100
AcDbXrecord
1000
KLNH
  0
XRECORD
  5
10000062
102
{ACAD_REACTORS
330
10000061
102
}
330
10000061
100
AcDbXrecord
1000
KLJH
  0
XRECORD
  5
10000065
102
{ACAD_REACTORS
330
10000064
102
}
330
10000064
100
AcDbXrecord
1000
KLFH
  0
XRECORD
  5
1000006A
102
{ACAD_REACTORS
330
10000069
102
}
330
10000069
100
AcDbXrecord
1000
KLBH
  0
XRECORD
  5
10000070
102
{ACAD_REACTORS
330
1000006F
102
}
330
1000006F
100
AcDbXrecord
1000
KL9G
  0
XRECORD
  5
10000076
102
{ACAD_REACTORS
330
10000075
102
}
330
10000075
100
AcDbXrecord
1000
KL5G
  0
XRECORD
  5
1000007C
102
{ACAD_REACTORS
330
1000007B
102
}
330
1000007B
100
AcDbXrecord
1000
KL1G
  0
XRECORD
  5
10000082
102
{ACAD_REACTORS
330
10000081
102
}
330
10000081
100
AcDbXrecord
1000
KLxG
  0
XRECORD
  5
10000088
102
{ACAD_REACTORS
330
10000087
102
}
330
10000087
100
AcDbXrecord
1000
KLtG
  0
XRECORD
  5
1000008E
102
{ACAD_REACTORS
330
1000008D
102
}
330
1000008D
100
AcDbXrecord
1000
KLpG
  0
XRECORD
  5
10000094
102
{ACAD_REACTORS
330
10000093
102
}
330
10000093
100
AcDbXrecord
1000
KLlG
  0
XRECORD
  5
10000099
102
{ACAD_REACTORS
330
10000096
102
}
330
10000096
100
AcDbXrecord
1040
0.0
1040
0.0
1040
0.0
  0
XRECORD
  5
1000009A
102
{ACAD_REACTORS
330
10000096
102
}
330
10000096
100
AcDbXrecord
 40
0.0
  0
XRECORD
  5
10000097
102
{ACAD_REACTORS
330
10000096
102
}
330
10000096
100
AcDbXrecord
1000
KLhG
  0
ACAD_PROXY_OBJECT
  5
10000098
102
{ACAD_REACTORS
330
10000096
102
}
330
10000096
100
AcDbProxyObject
 90
      499
 91
      509
 93
       34
310
40C8804040
  0
XRECORD
  5
1000009E
102
{ACAD_REACTORS
330
1000009B
102
}
330
1000009B
100
AcDbXrecord
1040
0.0
1040
0.0
1040
0.0
  0
XRECORD
  5
1000009F
102
{ACAD_REACTORS
330
1000009B
102
}
330
1000009B
100
AcDbXrecord
 40
0.0
  0
XRECORD
  5
1000009C
102
{ACAD_REACTORS
330
1000009B
102
}
330
1000009B
100
AcDbXrecord
1000
KLdG
  0
ACAD_PROXY_OBJECT
  5
1000009D
102
{ACAD_REACTORS
330
1000009B
102
}
330
1000009B
100
AcDbProxyObject
 90
      499
 91
      509
 93
       34
310
40C8804040
  0
XRECORD
  5
100000A3
102
{ACAD_REACTORS
330
100000A0
102
}
330
100000A0
100
AcDbXrecord
1040
0.0
1040
0.0
1040
0.0
  0
XRECORD
  5
100000A4
102
{ACAD_REACTORS
330
100000A0
102
}
330
100000A0
100
AcDbXrecord
 40
0.0
  0
XRECORD
  5
100000A1
102
{ACAD_REACTORS
330
100000A0
102
}
330
100000A0
100
AcDbXrecord
1000
KLZG
  0
ACAD_PROXY_OBJECT
  5
100000A2
102
{ACAD_REACTORS
330
100000A0
102
}
330
100000A0
100
AcDbProxyObject
 90
      499
 91
      509
 93
       34
310
40C8804040
  0
XRECORD
  5
100000A8
102
{ACAD_REACTORS
330
100000A5
102
}
330
100000A5
100
AcDbXrecord
1040
0.0
1040
0.0
1040
0.0
  0
XRECORD
  5
100000A9
102
{ACAD_REACTORS
330
100000A5
102
}
330
100000A5
100
AcDbXrecord
 40
0.0
  0
XRECORD
  5
100000A6
102
{ACAD_REACTORS
330
100000A5
102
}
330
100000A5
100
AcDbXrecord
1000
KLVG
  0
ACAD_PROXY_OBJECT
  5
100000A7
102
{ACAD_REACTORS
330
100000A5
102
}
330
100000A5
100
AcDbProxyObject
 90
      499
 91
      509
 93
       34
310
40C8804040
  0
XRECORD
  5
100000AE
102
{ACAD_REACTORS
330
100000AD
102
}
330
100000AD
100
AcDbXrecord
1000
KLRG
  0
XRECORD
  5
100000B4
102
{ACAD_REACTORS
330
100000B3
102
}
330
100000B3
100
AcDbXrecord
1000
KLNG
  0
XRECORD
  5
100000B7
102
{ACAD_REACTORS
330
100000B6
102
}
330
100000B6
100
AcDbXrecord
1000
KLJG
  0
XRECORD
  5
100000BC
102
{ACAD_REACTORS
330
100000BB
102
}
330
100000BB
100
AcDbXrecord
1000
KLFG
  0
XRECORD
  5
100000C2
102
{ACAD_REACTORS
330
100000C1
102
}
330
100000C1
100
AcDbXrecord
1000
KLBG
  0
XRECORD
  5
100000C8
102
{ACAD_REACTORS
330
100000C7
102
}
330
100000C7
100
AcDbXrecord
1000
KL9F
  0
XRECORD
  5
100000CE
102
{ACAD_REACTORS
330
100000CD
102
}
330
100000CD
100
AcDbXrecord
1000
KL5F
  0
XRECORD
  5
100000D3
102
{ACAD_REACTORS
330
100000D0
102
}
330
100000D0
100
AcDbXrecord
1040
0.0
1040
0.0
1040
0.0
  0
XRECORD
  5
100000D4
102
{ACAD_REACTORS
330
100000D0
102
}
330
100000D0
100
AcDbXrecord
 40
0.0
  0
XRECORD
  5
100000D1
102
{ACAD_REACTORS
330
100000D0
102
}
330
100000D0
100
AcDbXrecord
1000
KL1F
  0
ACAD_PROXY_OBJECT
  5
100000D2
102
{ACAD_REACTORS
330
100000D0
102
}
330
100000D0
100
AcDbProxyObject
 90
      499
 91
      509
 93
       34
310
40C8804040
  0
XRECORD
  5
100000D9
102
{ACAD_REACTORS
330
100000D8
102
}
330
100000D8
100
AcDbXrecord
1000
KLxF
  0
XRECORD
  5
100000DF
102
{ACAD_REACTORS
330
100000DE
102
}
330
100000DE
100
AcDbXrecord
1000
KLtF
  0
XRECORD
  5
100000E5
102
{ACAD_REACTORS
330
100000E4
102
}
330
100000E4
100
AcDbXrecord
1000
KLpF
  0
XRECORD
  5
100000EA
102
{ACAD_REACTORS
330
100000E7
102
}
330
100000E7
100
AcDbXrecord
1040
0.0
1040
0.0
1040
0.0
  0
XRECORD
  5
100000EB
102
{ACAD_REACTORS
330
100000E7
102
}
330
100000E7
100
AcDbXrecord
 40
0.0
  0
XRECORD
  5
100000E8
102
{ACAD_REACTORS
330
100000E7
102
}
330
100000E7
100
AcDbXrecord
1000
KLlF
  0
ACAD_PROXY_OBJECT
  5
100000E9
102
{ACAD_REACTORS
330
100000E7
102
}
330
100000E7
100
AcDbProxyObject
 90
      499
 91
      509
 93
       34
310
40C8804040
  0
XRECORD
  5
100000EF
102
{ACAD_REACTORS
330
100000EC
102
}
330
100000EC
100
AcDbXrecord
1040
0.0
1040
0.0
1040
0.0
  0
XRECORD
  5
100000F0
102
{ACAD_REACTORS
330
100000EC
102
}
330
100000EC
100
AcDbXrecord
 40
0.0
  0
XRECORD
  5
100000ED
102
{ACAD_REACTORS
330
100000EC
102
}
330
100000EC
100
AcDbXrecord
1000
KLhF
  0
ACAD_PROXY_OBJECT
  5
100000EE
102
{ACAD_REACTORS
330
100000EC
102
}
330
100000EC
100
AcDbProxyObject
 90
      499
 91
      509
 93
       34
310
40C8804040
  0
XRECORD
  5
100000F5
102
{ACAD_REACTORS
330
100000F4
102
}
330
100000F4
100
AcDbXrecord
1000
KLdF
  0
XRECORD
  5
100000FB
102
{ACAD_REACTORS
330
100000FA
102
}
330
100000FA
100
AcDbXrecord
1000
KLZF
  0
XRECORD
  5
10000101
102
{ACAD_REACTORS
330
10000100
102
}
330
10000100
100
AcDbXrecord
1000
KLVF
  0
XRECORD
  5
10000107
102
{ACAD_REACTORS
330
10000106
102
}
330
10000106
100
AcDbXrecord
1000
KLRF
  0
XRECORD
  5
1000010D
102
{ACAD_REACTORS
330
1000010C
102
}
330
1000010C
100
AcDbXrecord
1000
KLNF
  0
XRECORD
  5
10000113
102
{ACAD_REACTORS
330
10000112
102
}
330
10000112
100
AcDbXrecord
1000
KLJF
  0
XRECORD
  5
10000119
102
{ACAD_REACTORS
330
10000118
102
}
330
10000118
100
AcDbXrecord
1000
KLFF
  0
XRECORD
  5
1000011F
102
{ACAD_REACTORS
330
1000011E
102
}
330
1000011E
100
AcDbXrecord
1000
KLBF
  0
XRECORD
  5
10000125
102
{ACAD_REACTORS
330
10000124
102
}
330
10000124
100
AcDbXrecord
1000
KL9E
  0
XRECORD
  5
1000012B
102
{ACAD_REACTORS
330
1000012A
102
}
330
1000012A
100
AcDbXrecord
1000
KL5E
  0
XRECORD
  5
10000131
102
{ACAD_REACTORS
330
10000130
102
}
330
10000130
100
AcDbXrecord
1000
KL1E
  0
XRECORD
  5
10000137
102
{ACAD_REACTORS
330
10000136
102
}
330
10000136
100
AcDbXrecord
1000
KLxE
  0
XRECORD
  5
1000013C
102
{ACAD_REACTORS
330
10000139
102
}
330
10000139
100
AcDbXrecord
1040
0.0
1040
0.0
1040
0.0
  0
XRECORD
  5
1000013D
102
{ACAD_REACTORS
330
10000139
102
}
330
10000139
100
AcDbXrecord
 40
0.0
  0
XRECORD
  5
1000013A
102
{ACAD_REACTORS
330
10000139
102
}
330
10000139
100
AcDbXrecord
1000
KLtE
  0
ACAD_PROXY_OBJECT
  5
1000013B
102
{ACAD_REACTORS
330
10000139
102
}
330
10000139
100
AcDbProxyObject
 90
      499
 91
      509
 93
       34
310
40C8804040
  0
XRECORD
  5
10000142
102
{ACAD_REACTORS
330
10000141
102
}
330
10000141
100
AcDbXrecord
1000
KLpE
  0
XRECORD
  5
10000148
102
{ACAD_REACTORS
330
10000147
102
}
330
10000147
100
AcDbXrecord
1000
KLlE
  0
XRECORD
  5
1000014B
102
{ACAD_REACTORS
330
1000014A
102
}
330
1000014A
100
AcDbXrecord
1000
KLhE
  0
XRECORD
  5
1000014D
102
{ACAD_REACTORS
330
1000014C
102
}
330
1000014C
100
AcDbXrecord
1000
KLdE
  0
XRECORD
  5
1000014F
102
{ACAD_REACTORS
330
1000014E
102
}
330
1000014E
100
AcDbXrecord
1000
KLZE
  0
XRECORD
  5
10000154
102
{ACAD_REACTORS
330
10000153
102
}
330
10000153
100
AcDbXrecord
1000
KL1C
  0
XRECORD
  5
1000015A
102
{ACAD_REACTORS
330
10000159
102
}
330
10000159
100
AcDbXrecord
1000
KLxC
  0
XRECORD
  5
1000015F
102
{ACAD_REACTORS
330
1000015C
102
}
330
1000015C
100
AcDbXrecord
1040
0.0
1040
0.0
1040
0.0
  0
XRECORD
  5
10000160
102
{ACAD_REACTORS
330
1000015C
102
}
330
1000015C
100
AcDbXrecord
 40
0.0
  0
XRECORD
  5
1000015D
102
{ACAD_REACTORS
330
1000015C
102
}
330
1000015C
100
AcDbXrecord
1000
KLtC
  0
ACAD_PROXY_OBJECT
  5
1000015E
102
{ACAD_REACTORS
330
1000015C
102
}
330
1000015C
100
AcDbProxyObject
 90
      499
 91
      509
 93
       34
310
40C8804040
  0
XRECORD
  5
10000165
102
{ACAD_REACTORS
330
10000164
102
}
330
10000164
100
AcDbXrecord
1000
KLpC
  0
XRECORD
  5
1000016B
102
{ACAD_REACTORS
330
1000016A
102
}
330
1000016A
100
AcDbXrecord
1000
KLlC
  0
XRECORD
  5
10000171
102
{ACAD_REACTORS
330
10000170
102
}
330
10000170
100
AcDbXrecord
1000
KLhC
  0
XRECORD
  5
10000176
102
{ACAD_REACTORS
330
10000173
102
}
330
10000173
100
AcDbXrecord
1040
0.0
1040
0.0
1040
0.0
  0
XRECORD
  5
10000177
102
{ACAD_REACTORS
330
10000173
102
}
330
10000173
100
AcDbXrecord
 40
0.0
  0
XRECORD
  5
10000174
102
{ACAD_REACTORS
330
10000173
102
}
330
10000173
100
AcDbXrecord
1000
KLdC
  0
ACAD_PROXY_OBJECT
  5
10000175
102
{ACAD_REACTORS
330
10000173
102
}
330
10000173
100
AcDbProxyObject
 90
      499
 91
      509
 93
       34
310
40C8804040
  0
XRECORD
  5
1000017B
102
{ACAD_REACTORS
330
10000178
102
}
330
10000178
100
AcDbXrecord
1040
0.0
1040
0.0
1040
0.0
  0
XRECORD
  5
1000017C
102
{ACAD_REACTORS
330
10000178
102
}
330
10000178
100
AcDbXrecord
 40
0.0
  0
XRECORD
  5
10000179
102
{ACAD_REACTORS
330
10000178
102
}
330
10000178
100
AcDbXrecord
1000
KLZC
  0
ACAD_PROXY_OBJECT
  5
1000017A
102
{ACAD_REACTORS
330
10000178
102
}
330
10000178
100
AcDbProxyObject
 90
      499
 91
      509
 93
       34
310
40C8804040
  0
XRECORD
  5
10000181
102
{ACAD_REACTORS
330
10000180
102
}
330
10000180
100
AcDbXrecord
1000
KLVC
  0
XRECORD
  5
10000187
102
{ACAD_REACTORS
330
10000186
102
}
330
10000186
100
AcDbXrecord
1000
KLRC
  0
XRECORD
  5
1000018D
102
{ACAD_REACTORS
330
1000018C
102
}
330
1000018C
100
AcDbXrecord
1000
KLNC
  0
XRECORD
  5
10000193
102
{ACAD_REACTORS
330
10000192
102
}
330
10000192
100
AcDbXrecord
1000
KLJC
  0
XRECORD
  5
10000199
102
{ACAD_REACTORS
330
10000198
102
}
330
10000198
100
AcDbXrecord
1000
KLtB
  0
XRECORD
  5
1000019E
102
{ACAD_REACTORS
330
1000019B
102
}
330
1000019B
100
AcDbXrecord
1040
0.0
1040
0.0
1040
0.0
  0
XRECORD
  5
1000019F
102
{ACAD_REACTORS
330
1000019B
102
}
330
1000019B
100
AcDbXrecord
 40
0.0
  0
XRECORD
  5
1000019C
102
{ACAD_REACTORS
330
1000019B
102
}
330
1000019B
100
AcDbXrecord
1000
KLpB
  0
ACAD_PROXY_OBJECT
  5
1000019D
102
{ACAD_REACTORS
330
1000019B
102
}
330
1000019B
100
AcDbProxyObject
 90
      499
 91
      509
 93
       34
310
40C8804040
  0
XRECORD
  5
100001A3
102
{ACAD_REACTORS
330
100001A0
102
}
330
100001A0
100
AcDbXrecord
1040
0.0
1040
0.0
1040
0.0
  0
XRECORD
  5
100001A4
102
{ACAD_REACTORS
330
100001A0
102
}
330
100001A0
100
AcDbXrecord
 40
0.0
  0
XRECORD
  5
100001A1
102
{ACAD_REACTORS
330
100001A0
102
}
330
100001A0
100
AcDbXrecord
1000
KLlB
  0
ACAD_PROXY_OBJECT
  5
100001A2
102
{ACAD_REACTORS
330
100001A0
102
}
330
100001A0
100
AcDbProxyObject
 90
      499
 91
      509
 93
       34
310
40C8804040
  0
XRECORD
  5
100001A8
102
{ACAD_REACTORS
330
100001A5
102
}
330
100001A5
100
AcDbXrecord
1040
0.0
1040
0.0
1040
0.0
  0
XRECORD
  5
100001A9
102
{ACAD_REACTORS
330
100001A5
102
}
330
100001A5
100
AcDbXrecord
 40
0.0
  0
XRECORD
  5
100001A6
102
{ACAD_REACTORS
330
100001A5
102
}
330
100001A5
100
AcDbXrecord
1000
KLhB
  0
ACAD_PROXY_OBJECT
  5
100001A7
102
{ACAD_REACTORS
330
100001A5
102
}
330
100001A5
100
AcDbProxyObject
 90
      499
 91
      509
 93
       34
310
40C8804040
  0
XRECORD
  5
100001AD
102
{ACAD_REACTORS
330
100001AA
102
}
330
100001AA
100
AcDbXrecord
1040
0.0
1040
0.0
1040
0.0
  0
XRECORD
  5
100001AE
102
{ACAD_REACTORS
330
100001AA
102
}
330
100001AA
100
AcDbXrecord
 40
0.0
  0
XRECORD
  5
100001AB
102
{ACAD_REACTORS
330
100001AA
102
}
330
100001AA
100
AcDbXrecord
1000
KLxB
  0
ACAD_PROXY_OBJECT
  5
100001AC
102
{ACAD_REACTORS
330
100001AA
102
}
330
100001AA
100
AcDbProxyObject
 90
      499
 91
      509
 93
       34
310
40C8804040
  0
XRECORD
  5
100001B2
102
{ACAD_REACTORS
330
100001AF
102
}
330
100001AF
100
AcDbXrecord
1040
0.0
1040
0.0
1040
0.0
  0
XRECORD
  5
100001B3
102
{ACAD_REACTORS
330
100001AF
102
}
330
100001AF
100
AcDbXrecord
 40
0.0
  0
XRECORD
  5
100001B0
102
{ACAD_REACTORS
330
100001AF
102
}
330
100001AF
100
AcDbXrecord
1000
KL1B
  0
ACAD_PROXY_OBJECT
  5
100001B1
102
{ACAD_REACTORS
330
100001AF
102
}
330
100001AF
100
AcDbProxyObject
 90
      499
 91
      509
 93
       34
310
40C8804040
  0
XRECORD
  5
100001B7
102
{ACAD_REACTORS
330
100001B4
102
}
330
100001B4
100
AcDbXrecord
1040
0.0
1040
0.0
1040
0.0
  0
XRECORD
  5
100001B8
102
{ACAD_REACTORS
330
100001B4
102
}
330
100001B4
100
AcDbXrecord
 40
0.0
  0
XRECORD
  5
100001B5
102
{ACAD_REACTORS
330
100001B4
102
}
330
100001B4
100
AcDbXrecord
1000
KL5B
  0
ACAD_PROXY_OBJECT
  5
100001B6
102
{ACAD_REACTORS
330
100001B4
102
}
330
100001B4
100
AcDbProxyObject
 90
      499
 91
      509
 93
       34
310
40C8804040
  0
XRECORD
  5
100001BC
102
{ACAD_REACTORS
330
100001B9
102
}
330
100001B9
100
AcDbXrecord
1040
0.0
1040
0.0
1040
0.0
  0
XRECORD
  5
100001BD
102
{ACAD_REACTORS
330
100001B9
102
}
330
100001B9
100
AcDbXrecord
 40
0.0
  0
XRECORD
  5
100001BA
102
{ACAD_REACTORS
330
100001B9
102
}
330
100001B9
100
AcDbXrecord
1000
KL9B
  0
ACAD_PROXY_OBJECT
  5
100001BB
102
{ACAD_REACTORS
330
100001B9
102
}
330
100001B9
100
AcDbProxyObject
 90
      499
 91
      509
 93
       34
310
40C8804040
  0
XRECORD
  5
100001C1
102
{ACAD_REACTORS
330
100001BE
102
}
330
100001BE
100
AcDbXrecord
1040
0.0
1040
0.0
1040
0.0
  0
XRECORD
  5
100001C2
102
{ACAD_REACTORS
330
100001BE
102
}
330
100001BE
100
AcDbXrecord
 40
0.0
  0
XRECORD
  5
100001BF
102
{ACAD_REACTORS
330
100001BE
102
}
330
100001BE
100
AcDbXrecord
1000
KLBC
  0
ACAD_PROXY_OBJECT
  5
100001C0
102
{ACAD_REACTORS
330
100001BE
102
}
330
100001BE
100
AcDbProxyObject
 90
      499
 91
      509
 93
       34
310
40C8804040
  0
XRECORD
  5
100001C7
102
{ACAD_REACTORS
330
100001C6
102
}
330
100001C6
100
AcDbXrecord
1000
KLFC
  0
XRECORD
  5
100001CD
102
{ACAD_REACTORS
330
100001CC
102
}
330
100001CC
100
AcDbXrecord
1000
KL5C
  0
XRECORD
  5
100001D3
102
{ACAD_REACTORS
330
100001D2
102
}
330
100001D2
100
AcDbXrecord
1000
KL9C
  0
XRECORD
  5
100001D8
102
{ACAD_REACTORS
330
100001D5
102
}
330
100001D5
100
AcDbXrecord
1040
0.0
1040
0.0
1040
0.0
  0
XRECORD
  5
100001D9
102
{ACAD_REACTORS
330
100001D5
102
}
330
100001D5
100
AcDbXrecord
 40
0.0
  0
XRECORD
  5
100001D6
102
{ACAD_REACTORS
330
100001D5
102
}
330
100001D5
100
AcDbXrecord
1000
KLBD
  0
ACAD_PROXY_OBJECT
  5
100001D7
102
{ACAD_REACTORS
330
100001D5
102
}
330
100001D5
100
AcDbProxyObject
 90
      499
 91
      509
 93
       34
310
40C8804040
  0
XRECORD
  5
100001DD
102
{ACAD_REACTORS
330
100001DA
102
}
330
100001DA
100
AcDbXrecord
1040
0.0
1040
0.0
1040
0.0
  0
XRECORD
  5
100001DE
102
{ACAD_REACTORS
330
100001DA
102
}
330
100001DA
100
AcDbXrecord
 40
0.0
  0
XRECORD
  5
100001DB
102
{ACAD_REACTORS
330
100001DA
102
}
330
100001DA
100
AcDbXrecord
1000
KLFD
  0
ACAD_PROXY_OBJECT
  5
100001DC
102
{ACAD_REACTORS
330
100001DA
102
}
330
100001DA
100
AcDbProxyObject
 90
      499
 91
      509
 93
       34
310
40C8804040
  0
XRECORD
  5
100001E3
102
{ACAD_REACTORS
330
100001E2
102
}
330
100001E2
100
AcDbXrecord
1000
KLJD
  0
XRECORD
  5
100001E9
102
{ACAD_REACTORS
330
100001E8
102
}
330
100001E8
100
AcDbXrecord
1000
KLND
  0
XRECORD
  5
100001EE
102
{ACAD_REACTORS
330
100001EB
102
}
330
100001EB
100
AcDbXrecord
1040
0.0
1040
0.0
1040
0.0
  0
XRECORD
  5
100001EF
102
{ACAD_REACTORS
330
100001EB
102
}
330
100001EB
100
AcDbXrecord
 40
0.0
  0
XRECORD
  5
100001EC
102
{ACAD_REACTORS
330
100001EB
102
}
330
100001EB
100
AcDbXrecord
1000
KLRD
  0
ACAD_PROXY_OBJECT
  5
100001ED
102
{ACAD_REACTORS
330
100001EB
102
}
330
100001EB
100
AcDbProxyObject
 90
      499
 91
      509
 93
       34
310
40C8804040
  0
XRECORD
  5
100001F3
102
{ACAD_REACTORS
330
100001F0
102
}
330
100001F0
100
AcDbXrecord
1040
0.0
1040
0.0
1040
0.0
  0
XRECORD
  5
100001F4
102
{ACAD_REACTORS
330
100001F0
102
}
330
100001F0
100
AcDbXrecord
 40
0.0
  0
XRECORD
  5
100001F1
102
{ACAD_REACTORS
330
100001F0
102
}
330
100001F0
100
AcDbXrecord
1000
KLVD
  0
ACAD_PROXY_OBJECT
  5
100001F2
102
{ACAD_REACTORS
330
100001F0
102
}
330
100001F0
100
AcDbProxyObject
 90
      499
 91
      509
 93
       34
310
40C8804040
  0
XRECORD
  5
100001F9
102
{ACAD_REACTORS
330
100001F8
102
}
330
100001F8
100
AcDbXrecord
1000
KLZD
  0
XRECORD
  5
100001FF
102
{ACAD_REACTORS
330
100001FE
102
}
330
100001FE
100
AcDbXrecord
1000
KLdD
  0
XRECORD
  5
10000205
102
{ACAD_REACTORS
330
10000204
102
}
330
10000204
100
AcDbXrecord
1000
KLhD
  0
XRECORD
  5
1000020B
102
{ACAD_REACTORS
330
1000020A
102
}
330
1000020A
100
AcDbXrecord
1000
KLlD
  0
XRECORD
  5
1000020E
102
{ACAD_REACTORS
330
1000020D
102
}
330
1000020D
100
AcDbXrecord
1000
KLpD
  0
XRECORD
  5
10000213
102
{ACAD_REACTORS
330
10000212
102
}
330
10000212
100
AcDbXrecord
1000
KLtD
  0
XRECORD
  5
10000219
102
{ACAD_REACTORS
330
10000218
102
}
330
10000218
100
AcDbXrecord
1000
KLxD
  0
XRECORD
  5
1000021F
102
{ACAD_REACTORS
330
1000021E
102
}
330
1000021E
100
AcDbXrecord
1000
KL1D
  0
XRECORD
  5
10000225
102
{ACAD_REACTORS
330
10000224
102
}
330
10000224
100
AcDbXrecord
1000
KL5D
  0
XRECORD
  5
1000022B
102
{ACAD_REACTORS
330
1000022A
102
}
330
1000022A
100
AcDbXrecord
1000
KL9D
  0
XRECORD
  5
10000231
102
{ACAD_REACTORS
330
10000230
102
}
330
10000230
100
AcDbXrecord
1000
KLBE
  0
XRECORD
  5
10000236
102
{ACAD_REACTORS
330
10000233
102
}
330
10000233
100
AcDbXrecord
1040
0.0
1040
0.0
1040
0.0
  0
XRECORD
  5
10000237
102
{ACAD_REACTORS
330
10000233
102
}
330
10000233
100
AcDbXrecord
 40
0.0
  0
XRECORD
  5
10000234
102
{ACAD_REACTORS
330
10000233
102
}
330
10000233
100
AcDbXrecord
1000
KLFE
  0
ACAD_PROXY_OBJECT
  5
10000235
102
{ACAD_REACTORS
330
10000233
102
}
330
10000233
100
AcDbProxyObject
 90
      499
 91
      509
 93
       34
310
40C8804040
  0
XRECORD
  5
10000239
102
{ACAD_REACTORS
330
10000238
102
}
330
10000238
100
AcDbXrecord
1000
KLJE
  0
XRECORD
  5
1000023B
102
{ACAD_REACTORS
330
1000023A
102
}
330
1000023A
100
AcDbXrecord
1000
KLNE
  0
XRECORD
  5
1000023D
102
{ACAD_REACTORS
330
1000023C
102
}
330
1000023C
100
AcDbXrecord
1000
KLRE
  0
XRECORD
  5
1000023F
102
{ACAD_REACTORS
330
1000023E
102
}
330
1000023E
100
AcDbXrecord
1000
KLVE
  0
XRECORD
  5
10000241
102
{ACAD_REACTORS
330
10000240
102
}
330
10000240
100
AcDbXrecord
1000
KLhH
  0
XRECORD
  5
10000243
102
{ACAD_REACTORS
330
10000242
102
}
330
10000242
100
AcDbXrecord
1000
KLlH
  0
XRECORD
  5
10000245
102
{ACAD_REACTORS
330
10000244
102
}
330
10000244
100
AcDbXrecord
1000
KLpH
  0
XRECORD
  5
10000247
102
{ACAD_REACTORS
330
10000246
102
}
330
10000246
100
AcDbXrecord
1000
KLtH
  0
XRECORD
  5
1000024C
102
{ACAD_REACTORS
330
1000024B
102
}
330
1000024B
100
AcDbXrecord
1000
KLxH
  0
XRECORD
  5
10000252
102
{ACAD_REACTORS
330
10000251
102
}
330
10000251
100
AcDbXrecord
1000
KL1H
  0
XRECORD
  5
10000258
102
{ACAD_REACTORS
330
10000257
102
}
330
10000257
100
AcDbXrecord
1000
KL5H
  0
XRECORD
  5
1000025E
102
{ACAD_REACTORS
330
1000025D
102
}
330
1000025D
100
AcDbXrecord
1000
KL9H
  0
XRECORD
  5
10000263
102
{ACAD_REACTORS
330
10000260
102
}
330
10000260
100
AcDbXrecord
1040
0.0
1040
0.0
1040
0.0
  0
XRECORD
  5
10000264
102
{ACAD_REACTORS
330
10000260
102
}
330
10000260
100
AcDbXrecord
 40
0.0
  0
XRECORD
  5
10000261
102
{ACAD_REACTORS
330
10000260
102
}
330
10000260
100
AcDbXrecord
1000
KLBI
  0
ACAD_PROXY_OBJECT
  5
10000262
102
{ACAD_REACTORS
330
10000260
102
}
330
10000260
100
AcDbProxyObject
 90
      499
 91
      509
 93
       34
310
40C8804040
  0
XRECORD
  5
10000268
102
{ACAD_REACTORS
330
10000265
102
}
330
10000265
100
AcDbXrecord
1040
0.0
1040
0.0
1040
0.0
  0
XRECORD
  5
10000269
102
{ACAD_REACTORS
330
10000265
102
}
330
10000265
100
AcDbXrecord
 40
0.0
  0
XRECORD
  5
10000266
102
{ACAD_REACTORS
330
10000265
102
}
330
10000265
100
AcDbXrecord
1000
KLFI
  0
ACAD_PROXY_OBJECT
  5
10000267
102
{ACAD_REACTORS
330
10000265
102
}
330
10000265
100
AcDbProxyObject
 90
      499
 91
      509
 93
       34
310
40C8804040
  0
XRECORD
  5
1000026D
102
{ACAD_REACTORS
330
1000026A
102
}
330
1000026A
100
AcDbXrecord
1040
0.0
1040
0.0
1040
0.0
  0
XRECORD
  5
1000026E
102
{ACAD_REACTORS
330
1000026A
102
}
330
1000026A
100
AcDbXrecord
 40
0.0
  0
XRECORD
  5
1000026B
102
{ACAD_REACTORS
330
1000026A
102
}
330
1000026A
100
AcDbXrecord
1000
KLJI
  0
ACAD_PROXY_OBJECT
  5
1000026C
102
{ACAD_REACTORS
330
1000026A
102
}
330
1000026A
100
AcDbProxyObject
 90
      499
 91
      509
 93
       34
310
40C8804040
  0
XRECORD
  5
10000272
102
{ACAD_REACTORS
330
1000026F
102
}
330
1000026F
100
AcDbXrecord
1040
0.0
1040
0.0
1040
0.0
  0
XRECORD
  5
10000273
102
{ACAD_REACTORS
330
1000026F
102
}
330
1000026F
100
AcDbXrecord
 40
0.0
  0
XRECORD
  5
10000270
102
{ACAD_REACTORS
330
1000026F
102
}
330
1000026F
100
AcDbXrecord
1000
KLNI
  0
ACAD_PROXY_OBJECT
  5
10000271
102
{ACAD_REACTORS
330
1000026F
102
}
330
1000026F
100
AcDbProxyObject
 90
      499
 91
      509
 93
       34
310
40C8804040
  0
XRECORD
  5
10000277
102
{ACAD_REACTORS
330
10000274
102
}
330
10000274
100
AcDbXrecord
1040
0.0
1040
0.0
1040
0.0
  0
XRECORD
  5
10000278
102
{ACAD_REACTORS
330
10000274
102
}
330
10000274
100
AcDbXrecord
 40
0.0
  0
XRECORD
  5
10000275
102
{ACAD_REACTORS
330
10000274
102
}
330
10000274
100
AcDbXrecord
1000
KLRI
  0
ACAD_PROXY_OBJECT
  5
10000276
102
{ACAD_REACTORS
330
10000274
102
}
330
10000274
100
AcDbProxyObject
 90
      499
 91
      509
 93
       34
310
40C8804040
  0
XRECORD
  5
1000027C
102
{ACAD_REACTORS
330
10000279
102
}
330
10000279
100
AcDbXrecord
1040
0.0
1040
0.0
1040
0.0
  0
XRECORD
  5
1000027D
102
{ACAD_REACTORS
330
10000279
102
}
330
10000279
100
AcDbXrecord
 40
0.0
  0
XRECORD
  5
1000027A
102
{ACAD_REACTORS
330
10000279
102
}
330
10000279
100
AcDbXrecord
1000
KLVI
  0
ACAD_PROXY_OBJECT
  5
1000027B
102
{ACAD_REACTORS
330
10000279
102
}
330
10000279
100
AcDbProxyObject
 90
      499
 91
      509
 93
       34
310
40C8804040
  0
XRECORD
  5
10000281
102
{ACAD_REACTORS
330
1000027E
102
}
330
1000027E
100
AcDbXrecord
1040
0.0
1040
0.0
1040
0.0
  0
XRECORD
  5
10000282
102
{ACAD_REACTORS
330
1000027E
102
}
330
1000027E
100
AcDbXrecord
 40
0.0
  0
XRECORD
  5
1000027F
102
{ACAD_REACTORS
330
1000027E
102
}
330
1000027E
100
AcDbXrecord
1000
KLZI
  0
ACAD_PROXY_OBJECT
  5
10000280
102
{ACAD_REACTORS
330
1000027E
102
}
330
1000027E
100
AcDbProxyObject
 90
      499
 91
      509
 93
       34
310
40C8804040
  0
XRECORD
  5
10000286
102
{ACAD_REACTORS
330
10000283
102
}
330
10000283
100
AcDbXrecord
1040
0.0
1040
0.0
1040
0.0
  0
XRECORD
  5
10000287
102
{ACAD_REACTORS
330
10000283
102
}
330
10000283
100
AcDbXrecord
 40
0.0
  0
XRECORD
  5
10000284
102
{ACAD_REACTORS
330
10000283
102
}
330
10000283
100
AcDbXrecord
1000
KLdI
  0
ACAD_PROXY_OBJECT
  5
10000285
102
{ACAD_REACTORS
330
10000283
102
}
330
10000283
100
AcDbProxyObject
 90
      499
 91
      509
 93
       34
310
40C8804040
  0
XRECORD
  5
1000028B
102
{ACAD_REACTORS
330
10000288
102
}
330
10000288
100
AcDbXrecord
1040
0.0
1040
0.0
1040
0.0
  0
XRECORD
  5
1000028C
102
{ACAD_REACTORS
330
10000288
102
}
330
10000288
100
AcDbXrecord
 40
0.0
  0
XRECORD
  5
10000289
102
{ACAD_REACTORS
330
10000288
102
}
330
10000288
100
AcDbXrecord
1000
KLhI
  0
ACAD_PROXY_OBJECT
  5
1000028A
102
{ACAD_REACTORS
330
10000288
102
}
330
10000288
100
AcDbProxyObject
 90
      499
 91
      509
 93
       34
310
40C8804040
  0
XRECORD
  5
10000290
102
{ACAD_REACTORS
330
1000028D
102
}
330
1000028D
100
AcDbXrecord
1040
0.0
1040
0.0
1040
0.0
  0
XRECORD
  5
10000291
102
{ACAD_REACTORS
330
1000028D
102
}
330
1000028D
100
AcDbXrecord
 40
0.0
  0
XRECORD
  5
1000028E
102
{ACAD_REACTORS
330
1000028D
102
}
330
1000028D
100
AcDbXrecord
1000
KLlI
  0
ACAD_PROXY_OBJECT
  5
1000028F
102
{ACAD_REACTORS
330
1000028D
102
}
330
1000028D
100
AcDbProxyObject
 90
      499
 91
      509
 93
       34
310
40C8804040
  0
XRECORD
  5
10000295
102
{ACAD_REACTORS
330
10000292
102
}
330
10000292
100
AcDbXrecord
1040
0.0
1040
0.0
1040
0.0
  0
XRECORD
  5
10000296
102
{ACAD_REACTORS
330
10000292
102
}
330
10000292
100
AcDbXrecord
 40
0.0
  0
XRECORD
  5
10000293
102
{ACAD_REACTORS
330
10000292
102
}
330
10000292
100
AcDbXrecord
1000
KLpI
  0
ACAD_PROXY_OBJECT
  5
10000294
102
{ACAD_REACTORS
330
10000292
102
}
330
10000292
100
AcDbProxyObject
 90
      499
 91
      509
 93
       34
310
40C8804040
  0
XRECORD
  5
1000029A
102
{ACAD_REACTORS
330
10000297
102
}
330
10000297
100
AcDbXrecord
1040
0.0
1040
0.0
1040
0.0
  0
XRECORD
  5
1000029B
102
{ACAD_REACTORS
330
10000297
102
}
330
10000297
100
AcDbXrecord
 40
0.0
  0
XRECORD
  5
10000298
102
{ACAD_REACTORS
330
10000297
102
}
330
10000297
100
AcDbXrecord
1000
KLtI
  0
ACAD_PROXY_OBJECT
  5
10000299
102
{ACAD_REACTORS
330
10000297
102
}
330
10000297
100
AcDbProxyObject
 90
      499
 91
      509
 93
       34
310
40C8804040
  0
XRECORD
  5
1000029F
102
{ACAD_REACTORS
330
1000029C
102
}
330
1000029C
100
AcDbXrecord
1040
0.0
1040
0.0
1040
0.0
  0
XRECORD
  5
100002A0
102
{ACAD_REACTORS
330
1000029C
102
}
330
1000029C
100
AcDbXrecord
 40
0.0
  0
XRECORD
  5
1000029D
102
{ACAD_REACTORS
330
1000029C
102
}
330
1000029C
100
AcDbXrecord
1000
KLxI
  0
ACAD_PROXY_OBJECT
  5
1000029E
102
{ACAD_REACTORS
330
1000029C
102
}
330
1000029C
100
AcDbProxyObject
 90
      499
 91
      509
 93
       34
310
40C8804040
  0
XRECORD
  5
100002A4
102
{ACAD_REACTORS
330
100002A1
102
}
330
100002A1
100
AcDbXrecord
1040
0.0
1040
0.0
1040
0.0
  0
XRECORD
  5
100002A5
102
{ACAD_REACTORS
330
100002A1
102
}
330
100002A1
100
AcDbXrecord
 40
0.0
  0
XRECORD
  5
100002A2
102
{ACAD_REACTORS
330
100002A1
102
}
330
100002A1
100
AcDbXrecord
1000
KL1I
  0
ACAD_PROXY_OBJECT
  5
100002A3
102
{ACAD_REACTORS
330
100002A1
102
}
330
100002A1
100
AcDbProxyObject
 90
      499
 91
      509
 93
       34
310
40C8804040
  0
XRECORD
  5
100002A9
102
{ACAD_REACTORS
330
100002A6
102
}
330
100002A6
100
AcDbXrecord
1040
0.0
1040
0.0
1040
0.0
  0
XRECORD
  5
100002AA
102
{ACAD_REACTORS
330
100002A6
102
}
330
100002A6
100
AcDbXrecord
 40
0.0
  0
XRECORD
  5
100002A7
102
{ACAD_REACTORS
330
100002A6
102
}
330
100002A6
100
AcDbXrecord
1000
KL5I
  0
ACAD_PROXY_OBJECT
  5
100002A8
102
{ACAD_REACTORS
330
100002A6
102
}
330
100002A6
100
AcDbProxyObject
 90
      499
 91
      509
 93
       34
310
40C8804040
  0
XRECORD
  5
100002AE
102
{ACAD_REACTORS
330
100002AB
102
}
330
100002AB
100
AcDbXrecord
1040
0.0
1040
0.0
1040
0.0
  0
XRECORD
  5
100002AF
102
{ACAD_REACTORS
330
100002AB
102
}
330
100002AB
100
AcDbXrecord
 40
0.0
  0
XRECORD
  5
100002AC
102
{ACAD_REACTORS
330
100002AB
102
}
330
100002AB
100
AcDbXrecord
1000
KL9I
  0
ACAD_PROXY_OBJECT
  5
100002AD
102
{ACAD_REACTORS
330
100002AB
102
}
330
100002AB
100
AcDbProxyObject
 90
      499
 91
      509
 93
       34
310
40C8804040
  0
XRECORD
  5
100002B3
102
{ACAD_REACTORS
330
100002B0
102
}
330
100002B0
100
AcDbXrecord
1040
0.0
1040
0.0
1040
0.0
  0
XRECORD
  5
100002B4
102
{ACAD_REACTORS
330
100002B0
102
}
330
100002B0
100
AcDbXrecord
 40
0.0
  0
XRECORD
  5
100002B1
102
{ACAD_REACTORS
330
100002B0
102
}
330
100002B0
100
AcDbXrecord
1000
KLBJ
  0
ACAD_PROXY_OBJECT
  5
100002B2
102
{ACAD_REACTORS
330
100002B0
102
}
330
100002B0
100
AcDbProxyObject
 90
      499
 91
      509
 93
       34
310
40C8804040
  0
XRECORD
  5
100002B8
102
{ACAD_REACTORS
330
100002B5
102
}
330
100002B5
100
AcDbXrecord
1040
0.0
1040
0.0
1040
0.0
  0
XRECORD
  5
100002B9
102
{ACAD_REACTORS
330
100002B5
102
}
330
100002B5
100
AcDbXrecord
 40
0.0
  0
XRECORD
  5
100002B6
102
{ACAD_REACTORS
330
100002B5
102
}
330
100002B5
100
AcDbXrecord
1000
KLFJ
  0
ACAD_PROXY_OBJECT
  5
100002B7
102
{ACAD_REACTORS
330
100002B5
102
}
330
100002B5
100
AcDbProxyObject
 90
      499
 91
      509
 93
       34
310
40C8804040
  0
XRECORD
  5
100002BD
102
{ACAD_REACTORS
330
100002BA
102
}
330
100002BA
100
AcDbXrecord
1040
0.0
1040
0.0
1040
0.0
  0
XRECORD
  5
100002BE
102
{ACAD_REACTORS
330
100002BA
102
}
330
100002BA
100
AcDbXrecord
 40
0.0
  0
XRECORD
  5
100002BB
102
{ACAD_REACTORS
330
100002BA
102
}
330
100002BA
100
AcDbXrecord
1000
KLJJ
  0
ACAD_PROXY_OBJECT
  5
100002BC
102
{ACAD_REACTORS
330
100002BA
102
}
330
100002BA
100
AcDbProxyObject
 90
      499
 91
      509
 93
       34
310
40C8804040
  0
XRECORD
  5
100002C2
102
{ACAD_REACTORS
330
100002BF
102
}
330
100002BF
100
AcDbXrecord
1040
0.0
1040
0.0
1040
0.0
  0
XRECORD
  5
100002C3
102
{ACAD_REACTORS
330
100002BF
102
}
330
100002BF
100
AcDbXrecord
 40
0.0
  0
XRECORD
  5
100002C0
102
{ACAD_REACTORS
330
100002BF
102
}
330
100002BF
100
AcDbXrecord
1000
KLNJ
  0
ACAD_PROXY_OBJECT
  5
100002C1
102
{ACAD_REACTORS
330
100002BF
102
}
330
100002BF
100
AcDbProxyObject
 90
      499
 91
      509
 93
       34
310
40C8804040
  0
XRECORD
  5
100002C7
102
{ACAD_REACTORS
330
100002C4
102
}
330
100002C4
100
AcDbXrecord
1040
0.0
1040
0.0
1040
0.0
  0
XRECORD
  5
100002C8
102
{ACAD_REACTORS
330
100002C4
102
}
330
100002C4
100
AcDbXrecord
 40
0.0
  0
XRECORD
  5
100002C5
102
{ACAD_REACTORS
330
100002C4
102
}
330
100002C4
100
AcDbXrecord
1000
KLRJ
  0
ACAD_PROXY_OBJECT
  5
100002C6
102
{ACAD_REACTORS
330
100002C4
102
}
330
100002C4
100
AcDbProxyObject
 90
      499
 91
      509
 93
       34
310
40C8804040
  0
XRECORD
  5
100002CC
102
{ACAD_REACTORS
330
100002C9
102
}
330
100002C9
100
AcDbXrecord
1040
0.0
1040
0.0
1040
0.0
  0
XRECORD
  5
100002CD
102
{ACAD_REACTORS
330
100002C9
102
}
330
100002C9
100
AcDbXrecord
 40
0.0
  0
XRECORD
  5
100002CA
102
{ACAD_REACTORS
330
100002C9
102
}
330
100002C9
100
AcDbXrecord
1000
KLVJ
  0
ACAD_PROXY_OBJECT
  5
100002CB
102
{ACAD_REACTORS
330
100002C9
102
}
330
100002C9
100
AcDbProxyObject
 90
      499
 91
      509
 93
       34
310
40C8804040
  0
XRECORD
  5
100002D1
102
{ACAD_REACTORS
330
100002CE
102
}
330
100002CE
100
AcDbXrecord
1040
0.0
1040
0.0
1040
0.0
  0
XRECORD
  5
100002D2
102
{ACAD_REACTORS
330
100002CE
102
}
330
100002CE
100
AcDbXrecord
 40
0.0
  0
XRECORD
  5
100002CF
102
{ACAD_REACTORS
330
100002CE
102
}
330
100002CE
100
AcDbXrecord
1000
KLZJ
  0
ACAD_PROXY_OBJECT
  5
100002D0
102
{ACAD_REACTORS
330
100002CE
102
}
330
100002CE
100
AcDbProxyObject
 90
      499
 91
      509
 93
       34
310
40C8804040
  0
XRECORD
  5
100002D6
102
{ACAD_REACTORS
330
100002D3
102
}
330
100002D3
100
AcDbXrecord
1040
0.0
1040
0.0
1040
0.0
  0
XRECORD
  5
100002D7
102
{ACAD_REACTORS
330
100002D3
102
}
330
100002D3
100
AcDbXrecord
 40
0.0
  0
XRECORD
  5
100002D4
102
{ACAD_REACTORS
330
100002D3
102
}
330
100002D3
100
AcDbXrecord
1000
KLdJ
  0
ACAD_PROXY_OBJECT
  5
100002D5
102
{ACAD_REACTORS
330
100002D3
102
}
330
100002D3
100
AcDbProxyObject
 90
      499
 91
      509
 93
       34
310
40C8804040
  0
XRECORD
  5
100002DB
102
{ACAD_REACTORS
330
100002D8
102
}
330
100002D8
100
AcDbXrecord
1040
0.0
1040
0.0
1040
0.0
  0
XRECORD
  5
100002DC
102
{ACAD_REACTORS
330
100002D8
102
}
330
100002D8
100
AcDbXrecord
 40
0.0
  0
XRECORD
  5
100002D9
102
{ACAD_REACTORS
330
100002D8
102
}
330
100002D8
100
AcDbXrecord
1000
KLhJ
  0
ACAD_PROXY_OBJECT
  5
100002DA
102
{ACAD_REACTORS
330
100002D8
102
}
330
100002D8
100
AcDbProxyObject
 90
      499
 91
      509
 93
       34
310
40C8804040
  0
XRECORD
  5
100002E0
102
{ACAD_REACTORS
330
100002DD
102
}
330
100002DD
100
AcDbXrecord
1040
0.0
1040
0.0
1040
0.0
  0
XRECORD
  5
100002E1
102
{ACAD_REACTORS
330
100002DD
102
}
330
100002DD
100
AcDbXrecord
 40
0.0
  0
XRECORD
  5
100002DE
102
{ACAD_REACTORS
330
100002DD
102
}
330
100002DD
100
AcDbXrecord
1000
KLlJ
  0
ACAD_PROXY_OBJECT
  5
100002DF
102
{ACAD_REACTORS
330
100002DD
102
}
330
100002DD
100
AcDbProxyObject
 90
      499
 91
      509
 93
       34
310
40C8804040
  0
XRECORD
  5
100002E6
102
{ACAD_REACTORS
330
100002E5
102
}
330
100002E5
100
AcDbXrecord
1000
KLpJ
  0
XRECORD
  5
100002EC
102
{ACAD_REACTORS
330
100002EB
102
}
330
100002EB
100
AcDbXrecord
1000
KLtJ
  0
XRECORD
  5
100002F2
102
{ACAD_REACTORS
330
100002F1
102
}
330
100002F1
100
AcDbXrecord
1000
KLxJ
  0
XRECORD
  5
100002F8
102
{ACAD_REACTORS
330
100002F7
102
}
330
100002F7
100
AcDbXrecord
1000
KL1J
  0
XRECORD
  5
100002FE
102
{ACAD_REACTORS
330
100002FD
102
}
330
100002FD
100
AcDbXrecord
1000
KL5J
  0
XRECORD
  5
10000304
102
{ACAD_REACTORS
330
10000303
102
}
330
10000303
100
AcDbXrecord
1000
KL9J
  0
XRECORD
  5
1000030A
102
{ACAD_REACTORS
330
10000309
102
}
330
10000309
100
AcDbXrecord
1000
KLBK
  0
XRECORD
  5
10000310
102
{ACAD_REACTORS
330
1000030F
102
}
330
1000030F
100
AcDbXrecord
1000
KLFK
  0
XRECORD
  5
10000316
102
{ACAD_REACTORS
330
10000315
102
}
330
10000315
100
AcDbXrecord
1000
KLJK
  0
XRECORD
  5
1000031C
102
{ACAD_REACTORS
330
1000031B
102
}
330
1000031B
100
AcDbXrecord
1000
KLNK
  0
XRECORD
  5
10000322
102
{ACAD_REACTORS
330
10000321
102
}
330
10000321
100
AcDbXrecord
1000
KLRK
  0
XRECORD
  5
10000328
102
{ACAD_REACTORS
330
10000327
102
}
330
10000327
100
AcDbXrecord
1000
KLVK
  0
XRECORD
  5
1000032E
102
{ACAD_REACTORS
330
1000032D
102
}
330
1000032D
100
AcDbXrecord
1000
KLZK
  0
XRECORD
  5
10000334
102
{ACAD_REACTORS
330
10000333
102
}
330
10000333
100
AcDbXrecord
1000
KLdK
  0
XRECORD
  5
1000033A
102
{ACAD_REACTORS
330
10000339
102
}
330
10000339
100
AcDbXrecord
1000
KLhK
  0
XRECORD
  5
10000340
102
{ACAD_REACTORS
330
1000033F
102
}
330
1000033F
100
AcDbXrecord
1000
KLlK
  0
XRECORD
  5
10000346
102
{ACAD_REACTORS
330
10000345
102
}
330
10000345
100
AcDbXrecord
1000
KLpK
  0
XRECORD
  5
10000349
102
{ACAD_REACTORS
330
10000348
102
}
330
10000348
100
AcDbXrecord
1000
KLtK
  0
XRECORD
  5
1000034E
102
{ACAD_REACTORS
330
1000034D
102
}
330
1000034D
100
AcDbXrecord
1000
KLxK
  0
XRECORD
  5
10000353
102
{ACAD_REACTORS
330
10000350
102
}
330
10000350
100
AcDbXrecord
1040
0.0
1040
0.0
1040
0.0
  0
XRECORD
  5
10000354
102
{ACAD_REACTORS
330
10000350
102
}
330
10000350
100
AcDbXrecord
 40
0.0
  0
XRECORD
  5
10000351
102
{ACAD_REACTORS
330
10000350
102
}
330
10000350
100
AcDbXrecord
1000
KL1K
  0
ACAD_PROXY_OBJECT
  5
10000352
102
{ACAD_REACTORS
330
10000350
102
}
330
10000350
100
AcDbProxyObject
 90
      499
 91
      509
 93
       34
310
40C8804040
  0
XRECORD
  5
10000359
102
{ACAD_REACTORS
330
10000358
102
}
330
10000358
100
AcDbXrecord
1000
KL5K
  0
XRECORD
  5
1000035E
102
{ACAD_REACTORS
330
1000035B
102
}
330
1000035B
100
AcDbXrecord
1040
0.0
1040
0.0
1040
0.0
  0
XRECORD
  5
1000035F
102
{ACAD_REACTORS
330
1000035B
102
}
330
1000035B
100
AcDbXrecord
 40
0.0
  0
XRECORD
  5
1000035C
102
{ACAD_REACTORS
330
1000035B
102
}
330
1000035B
100
AcDbXrecord
1000
KL9K
  0
ACAD_PROXY_OBJECT
  5
1000035D
102
{ACAD_REACTORS
330
1000035B
102
}
330
1000035B
100
AcDbProxyObject
 90
      499
 91
      509
 93
       34
310
40C8804040
  0
XRECORD
  5
10000363
102
{ACAD_REACTORS
330
10000360
102
}
330
10000360
100
AcDbXrecord
1040
0.0
1040
0.0
1040
0.0
  0
XRECORD
  5
10000364
102
{ACAD_REACTORS
330
10000360
102
}
330
10000360
100
AcDbXrecord
 40
0.0
  0
XRECORD
  5
10000361
102
{ACAD_REACTORS
330
10000360
102
}
330
10000360
100
AcDbXrecord
1000
KLBL
  0
ACAD_PROXY_OBJECT
  5
10000362
102
{ACAD_REACTORS
330
10000360
102
}
330
10000360
100
AcDbProxyObject
 90
      499
 91
      509
 93
       34
310
40C8804040
  0
XRECORD
  5
10000368
102
{ACAD_REACTORS
330
10000365
102
}
330
10000365
100
AcDbXrecord
1040
0.0
1040
0.0
1040
0.0
  0
XRECORD
  5
10000369
102
{ACAD_REACTORS
330
10000365
102
}
330
10000365
100
AcDbXrecord
 40
0.0
  0
XRECORD
  5
10000366
102
{ACAD_REACTORS
330
10000365
102
}
330
10000365
100
AcDbXrecord
1000
KLFL
  0
ACAD_PROXY_OBJECT
  5
10000367
102
{ACAD_REACTORS
330
10000365
102
}
330
10000365
100
AcDbProxyObject
 90
      499
 91
      509
 93
       34
310
40C8804040
  0
XRECORD
  5
1000036D
102
{ACAD_REACTORS
330
1000036A
102
}
330
1000036A
100
AcDbXrecord
1040
0.0
1040
0.0
1040
0.0
  0
XRECORD
  5
1000036E
102
{ACAD_REACTORS
330
1000036A
102
}
330
1000036A
100
AcDbXrecord
 40
0.0
  0
XRECORD
  5
1000036B
102
{ACAD_REACTORS
330
1000036A
102
}
330
1000036A
100
AcDbXrecord
1000
KLJL
  0
ACAD_PROXY_OBJECT
  5
1000036C
102
{ACAD_REACTORS
330
1000036A
102
}
330
1000036A
100
AcDbProxyObject
 90
      499
 91
      509
 93
       34
310
40C8804040
  0
XRECORD
  5
10000373
102
{ACAD_REACTORS
330
10000372
102
}
330
10000372
100
AcDbXrecord
1000
KLNL
  0
XRECORD
  5
10000379
102
{ACAD_REACTORS
330
10000378
102
}
330
10000378
100
AcDbXrecord
1000
KLRL
  0
XRECORD
  5
1000037E
102
{ACAD_REACTORS
330
1000037B
102
}
330
1000037B
100
AcDbXrecord
1040
0.0
1040
0.0
1040
0.0
  0
XRECORD
  5
1000037F
102
{ACAD_REACTORS
330
1000037B
102
}
330
1000037B
100
AcDbXrecord
 40
0.0
  0
XRECORD
  5
1000037C
102
{ACAD_REACTORS
330
1000037B
102
}
330
1000037B
100
AcDbXrecord
1000
KLVL
  0
ACAD_PROXY_OBJECT
  5
1000037D
102
{ACAD_REACTORS
330
1000037B
102
}
330
1000037B
100
AcDbProxyObject
 90
      499
 91
      509
 93
       34
310
40C8804040
  0
XRECORD
  5
10000384
102
{ACAD_REACTORS
330
10000383
102
}
330
10000383
100
AcDbXrecord
1000
KLZL
  0
XRECORD
  5
1000038A
102
{ACAD_REACTORS
330
10000389
102
}
330
10000389
100
AcDbXrecord
1000
KLdL
  0
XRECORD
  5
1000038D
102
{ACAD_REACTORS
330
1000038C
102
}
330
1000038C
100
AcDbXrecord
1000
KLhL
  0
XRECORD
  5
1000038F
102
{ACAD_REACTORS
330
1000038E
102
}
330
1000038E
100
AcDbXrecord
1000
KLlL
  0
XRECORD
  5
10000391
102
{ACAD_REACTORS
330
10000390
102
}
330
10000390
100
AcDbXrecord
1000
KLpL
  0
XRECORD
  5
10000396
102
{ACAD_REACTORS
330
10000395
102
}
330
10000395
100
AcDbXrecord
1000
KLtL
  0
XRECORD
  5
1000039B
102
{ACAD_REACTORS
330
10000398
102
}
330
10000398
100
AcDbXrecord
1040
0.0
1040
0.0
1040
0.0
  0
XRECORD
  5
1000039C
102
{ACAD_REACTORS
330
10000398
102
}
330
10000398
100
AcDbXrecord
 40
0.0
  0
XRECORD
  5
10000399
102
{ACAD_REACTORS
330
10000398
102
}
330
10000398
100
AcDbXrecord
1000
KLxL
  0
ACAD_PROXY_OBJECT
  5
1000039A
102
{ACAD_REACTORS
330
10000398
102
}
330
10000398
100
AcDbProxyObject
 90
      499
 91
      509
 93
       34
310
40C8804040
  0
XRECORD
  5
100003A1
102
{ACAD_REACTORS
330
100003A0
102
}
330
100003A0
100
AcDbXrecord
1000
KL1L
  0
XRECORD
  5
100003A7
102
{ACAD_REACTORS
330
100003A6
102
}
330
100003A6
100
AcDbXrecord
1000
KL5L
  0
XRECORD
  5
100003AC
102
{ACAD_REACTORS
330
100003A9
102
}
330
100003A9
100
AcDbXrecord
1040
0.0
1040
0.0
1040
0.0
  0
XRECORD
  5
100003AD
102
{ACAD_REACTORS
330
100003A9
102
}
330
100003A9
100
AcDbXrecord
 40
0.0
  0
XRECORD
  5
100003AA
102
{ACAD_REACTORS
330
100003A9
102
}
330
100003A9
100
AcDbXrecord
1000
KL9L
  0
ACAD_PROXY_OBJECT
  5
100003AB
102
{ACAD_REACTORS
330
100003A9
102
}
330
100003A9
100
AcDbProxyObject
 90
      499
 91
      509
 93
       34
310
40C8804040
  0
XRECORD
  5
100003B1
102
{ACAD_REACTORS
330
100003AE
102
}
330
100003AE
100
AcDbXrecord
1040
0.0
1040
0.0
1040
0.0
  0
XRECORD
  5
100003B2
102
{ACAD_REACTORS
330
100003AE
102
}
330
100003AE
100
AcDbXrecord
 40
0.0
  0
XRECORD
  5
100003AF
102
{ACAD_REACTORS
330
100003AE
102
}
330
100003AE
100
AcDbXrecord
1000
KLBM
  0
ACAD_PROXY_OBJECT
  5
100003B0
102
{ACAD_REACTORS
330
100003AE
102
}
330
100003AE
100
AcDbProxyObject
 90
      499
 91
      509
 93
       34
310
40C8804040
  0
XRECORD
  5
100003B6
102
{ACAD_REACTORS
330
100003B3
102
}
330
100003B3
100
AcDbXrecord
1040
0.0
1040
0.0
1040
0.0
  0
XRECORD
  5
100003B7
102
{ACAD_REACTORS
330
100003B3
102
}
330
100003B3
100
AcDbXrecord
 40
0.0
  0
XRECORD
  5
100003B4
102
{ACAD_REACTORS
330
100003B3
102
}
330
100003B3
100
AcDbXrecord
1000
KLFM
  0
ACAD_PROXY_OBJECT
  5
100003B5
102
{ACAD_REACTORS
330
100003B3
102
}
330
100003B3
100
AcDbProxyObject
 90
      499
 91
      509
 93
       34
310
40C8804040
  0
XRECORD
  5
100003BB
102
{ACAD_REACTORS
330
100003B8
102
}
330
100003B8
100
AcDbXrecord
1040
0.0
1040
0.0
1040
0.0
  0
XRECORD
  5
100003BC
102
{ACAD_REACTORS
330
100003B8
102
}
330
100003B8
100
AcDbXrecord
 40
0.0
  0
XRECORD
  5
100003B9
102
{ACAD_REACTORS
330
100003B8
102
}
330
100003B8
100
AcDbXrecord
1000
KLJM
  0
ACAD_PROXY_OBJECT
  5
100003BA
102
{ACAD_REACTORS
330
100003B8
102
}
330
100003B8
100
AcDbProxyObject
 90
      499
 91
      509
 93
       34
310
40C8804040
  0
XRECORD
  5
100003C1
102
{ACAD_REACTORS
330
100003C0
102
}
330
100003C0
100
AcDbXrecord
1000
KLNM
  0
XRECORD
  5
100003C7
102
{ACAD_REACTORS
330
100003C6
102
}
330
100003C6
100
AcDbXrecord
1000
KLRM
  0
XRECORD
  5
100003CD
102
{ACAD_REACTORS
330
100003CC
102
}
330
100003CC
100
AcDbXrecord
1000
KLVM
  0
XRECORD
  5
100003D3
102
{ACAD_REACTORS
330
100003D2
102
}
330
100003D2
100
AcDbXrecord
1000
KLZM
  0
XRECORD
  5
100003D8
102
{ACAD_REACTORS
330
100003D5
102
}
330
100003D5
100
AcDbXrecord
1040
0.0
1040
0.0
1040
0.0
  0
XRECORD
  5
100003D9
102
{ACAD_REACTORS
330
100003D5
102
}
330
100003D5
100
AcDbXrecord
 40
0.0
  0
XRECORD
  5
100003D6
102
{ACAD_REACTORS
330
100003D5
102
}
330
100003D5
100
AcDbXrecord
1000
KLdM
  0
ACAD_PROXY_OBJECT
  5
100003D7
102
{ACAD_REACTORS
330
100003D5
102
}
330
100003D5
100
AcDbProxyObject
 90
      499
 91
      509
 93
       34
310
40C8804040
  0
XRECORD
  5
100003DD
102
{ACAD_REACTORS
330
100003DA
102
}
330
100003DA
100
AcDbXrecord
1040
0.0
1040
0.0
1040
0.0
  0
XRECORD
  5
100003DE
102
{ACAD_REACTORS
330
100003DA
102
}
330
100003DA
100
AcDbXrecord
 40
0.0
  0
XRECORD
  5
100003DB
102
{ACAD_REACTORS
330
100003DA
102
}
330
100003DA
100
AcDbXrecord
1000
KLhM
  0
ACAD_PROXY_OBJECT
  5
100003DC
102
{ACAD_REACTORS
330
100003DA
102
}
330
100003DA
100
AcDbProxyObject
 90
      499
 91
      509
 93
       34
310
40C8804040
  0
XRECORD
  5
100003E2
102
{ACAD_REACTORS
330
100003DF
102
}
330
100003DF
100
AcDbXrecord
1040
0.0
1040
0.0
1040
0.0
  0
XRECORD
  5
100003E3
102
{ACAD_REACTORS
330
100003DF
102
}
330
100003DF
100
AcDbXrecord
 40
0.0
  0
XRECORD
  5
100003E0
102
{ACAD_REACTORS
330
100003DF
102
}
330
100003DF
100
AcDbXrecord
1000
KLlM
  0
ACAD_PROXY_OBJECT
  5
100003E1
102
{ACAD_REACTORS
330
100003DF
102
}
330
100003DF
100
AcDbProxyObject
 90
      499
 91
      509
 93
       34
310
40C8804040
  0
XRECORD
  5
100003E7
102
{ACAD_REACTORS
330
100003E4
102
}
330
100003E4
100
AcDbXrecord
1040
0.0
1040
0.0
1040
0.0
  0
XRECORD
  5
100003E8
102
{ACAD_REACTORS
330
100003E4
102
}
330
100003E4
100
AcDbXrecord
 40
0.0
  0
XRECORD
  5
100003E5
102
{ACAD_REACTORS
330
100003E4
102
}
330
100003E4
100
AcDbXrecord
1000
KLpM
  0
ACAD_PROXY_OBJECT
  5
100003E6
102
{ACAD_REACTORS
330
100003E4
102
}
330
100003E4
100
AcDbProxyObject
 90
      499
 91
      509
 93
       34
310
40C8804040
  0
XRECORD
  5
100003EC
102
{ACAD_REACTORS
330
100003E9
102
}
330
100003E9
100
AcDbXrecord
1040
0.0
1040
0.0
1040
0.0
  0
XRECORD
  5
100003ED
102
{ACAD_REACTORS
330
100003E9
102
}
330
100003E9
100
AcDbXrecord
 40
0.0
  0
XRECORD
  5
100003EA
102
{ACAD_REACTORS
330
100003E9
102
}
330
100003E9
100
AcDbXrecord
1000
KLtM
  0
ACAD_PROXY_OBJECT
  5
100003EB
102
{ACAD_REACTORS
330
100003E9
102
}
330
100003E9
100
AcDbProxyObject
 90
      499
 91
      509
 93
       34
310
40C8804040
  0
XRECORD
  5
100003F1
102
{ACAD_REACTORS
330
100003EE
102
}
330
100003EE
100
AcDbXrecord
1040
0.0
1040
0.0
1040
0.0
  0
XRECORD
  5
100003F2
102
{ACAD_REACTORS
330
100003EE
102
}
330
100003EE
100
AcDbXrecord
 40
0.0
  0
XRECORD
  5
100003EF
102
{ACAD_REACTORS
330
100003EE
102
}
330
100003EE
100
AcDbXrecord
1000
KLxM
  0
ACAD_PROXY_OBJECT
  5
100003F0
102
{ACAD_REACTORS
330
100003EE
102
}
330
100003EE
100
AcDbProxyObject
 90
      499
 91
      509
 93
       34
310
40C8804040
  0
XRECORD
  5
100003F7
102
{ACAD_REACTORS
330
100003F6
102
}
330
100003F6
100
AcDbXrecord
1000
KL1M
  0
XRECORD
  5
100003FD
102
{ACAD_REACTORS
330
100003FC
102
}
330
100003FC
100
AcDbXrecord
1000
KL5M
  0
XRECORD
  5
10000403
102
{ACAD_REACTORS
330
10000402
102
}
330
10000402
100
AcDbXrecord
1000
KL9M
  0
XRECORD
  5
10000409
102
{ACAD_REACTORS
330
10000408
102
}
330
10000408
100
AcDbXrecord
1000
KLBN
  0
XRECORD
  5
1000040C
102
{ACAD_REACTORS
330
1000040B
102
}
330
1000040B
100
AcDbXrecord
1000
KLFN
  0
XRECORD
  5
1000040E
102
{ACAD_REACTORS
330
1000040D
102
}
330
1000040D
100
AcDbXrecord
1000
KLJN
  0
XRECORD
  5
10000410
102
{ACAD_REACTORS
330
1000040F
102
}
330
1000040F
100
AcDbXrecord
1000
KLNN
  0
XRECORD
  5
10000414
102
{ACAD_REACTORS
330
10000411
102
}
330
10000411
100
AcDbXrecord
1040
0.0
1040
0.0
1040
0.0
  0
XRECORD
  5
10000415
102
{ACAD_REACTORS
330
10000411
102
}
330
10000411
100
AcDbXrecord
 40
0.0
  0
XRECORD
  5
10000412
102
{ACAD_REACTORS
330
10000411
102
}
330
10000411
100
AcDbXrecord
1000
KLRN
  0
ACAD_PROXY_OBJECT
  5
10000413
102
{ACAD_REACTORS
330
10000411
102
}
330
10000411
100
AcDbProxyObject
 90
      499
 91
      509
 93
       34
310
40C8804040
  0
XRECORD
  5
10000419
102
{ACAD_REACTORS
330
10000416
102
}
330
10000416
100
AcDbXrecord
1040
0.0
1040
0.0
1040
0.0
  0
XRECORD
  5
1000041A
102
{ACAD_REACTORS
330
10000416
102
}
330
10000416
100
AcDbXrecord
 40
0.0
  0
XRECORD
  5
10000417
102
{ACAD_REACTORS
330
10000416
102
}
330
10000416
100
AcDbXrecord
1000
KLVN
  0
ACAD_PROXY_OBJECT
  5
10000418
102
{ACAD_REACTORS
330
10000416
102
}
330
10000416
100
AcDbProxyObject
 90
      499
 91
      509
 93
       34
310
40C8804040
  0
XRECORD
  5
1000041E
102
{ACAD_REACTORS
330
1000041B
102
}
330
1000041B
100
AcDbXrecord
1040
0.0
1040
0.0
1040
0.0
  0
XRECORD
  5
1000041F
102
{ACAD_REACTORS
330
1000041B
102
}
330
1000041B
100
AcDbXrecord
 40
0.0
  0
XRECORD
  5
1000041C
102
{ACAD_REACTORS
330
1000041B
102
}
330
1000041B
100
AcDbXrecord
1000
KLZN
  0
ACAD_PROXY_OBJECT
  5
1000041D
102
{ACAD_REACTORS
330
1000041B
102
}
330
1000041B
100
AcDbProxyObject
 90
      499
 91
      509
 93
       34
310
40C8804040
  0
XRECORD
  5
10000423
102
{ACAD_REACTORS
330
10000420
102
}
330
10000420
100
AcDbXrecord
1040
0.0
1040
0.0
1040
0.0
  0
XRECORD
  5
10000424
102
{ACAD_REACTORS
330
10000420
102
}
330
10000420
100
AcDbXrecord
 40
0.0
  0
XRECORD
  5
10000421
102
{ACAD_REACTORS
330
10000420
102
}
330
10000420
100
AcDbXrecord
1000
KLdN
  0
ACAD_PROXY_OBJECT
  5
10000422
102
{ACAD_REACTORS
330
10000420
102
}
330
10000420
100
AcDbProxyObject
 90
      499
 91
      509
 93
       34
310
40C8804040
  0
XRECORD
  5
10000428
102
{ACAD_REACTORS
330
10000425
102
}
330
10000425
100
AcDbXrecord
1040
0.0
1040
0.0
1040
0.0
  0
XRECORD
  5
10000429
102
{ACAD_REACTORS
330
10000425
102
}
330
10000425
100
AcDbXrecord
 40
0.0
  0
XRECORD
  5
10000426
102
{ACAD_REACTORS
330
10000425
102
}
330
10000425
100
AcDbXrecord
1000
KLhN
  0
ACAD_PROXY_OBJECT
  5
10000427
102
{ACAD_REACTORS
330
10000425
102
}
330
10000425
100
AcDbProxyObject
 90
      499
 91
      509
 93
       34
310
40C8804040
  0
XRECORD
  5
1000042D
102
{ACAD_REACTORS
330
1000042A
102
}
330
1000042A
100
AcDbXrecord
1040
0.0
1040
0.0
1040
0.0
  0
XRECORD
  5
1000042E
102
{ACAD_REACTORS
330
1000042A
102
}
330
1000042A
100
AcDbXrecord
 40
0.0
  0
XRECORD
  5
1000042B
102
{ACAD_REACTORS
330
1000042A
102
}
330
1000042A
100
AcDbXrecord
1000
KLlN
  0
ACAD_PROXY_OBJECT
  5
1000042C
102
{ACAD_REACTORS
330
1000042A
102
}
330
1000042A
100
AcDbProxyObject
 90
      499
 91
      509
 93
       34
310
40C8804040
  0
XRECORD
  5
10000432
102
{ACAD_REACTORS
330
1000042F
102
}
330
1000042F
100
AcDbXrecord
1040
0.0
1040
0.0
1040
0.0
  0
XRECORD
  5
10000433
102
{ACAD_REACTORS
330
1000042F
102
}
330
1000042F
100
AcDbXrecord
 40
0.0
  0
XRECORD
  5
10000430
102
{ACAD_REACTORS
330
1000042F
102
}
330
1000042F
100
AcDbXrecord
1000
KLpN
  0
ACAD_PROXY_OBJECT
  5
10000431
102
{ACAD_REACTORS
330
1000042F
102
}
330
1000042F
100
AcDbProxyObject
 90
      499
 91
      509
 93
       34
310
40C8804040
  0
XRECORD
  5
10000437
102
{ACAD_REACTORS
330
10000434
102
}
330
10000434
100
AcDbXrecord
1040
0.0
1040
0.0
1040
0.0
  0
XRECORD
  5
10000438
102
{ACAD_REACTORS
330
10000434
102
}
330
10000434
100
AcDbXrecord
 40
0.0
  0
XRECORD
  5
10000435
102
{ACAD_REACTORS
330
10000434
102
}
330
10000434
100
AcDbXrecord
1000
KLtN
  0
ACAD_PROXY_OBJECT
  5
10000436
102
{ACAD_REACTORS
330
10000434
102
}
330
10000434
100
AcDbProxyObject
 90
      499
 91
      509
 93
       34
310
40C8804040
  0
XRECORD
  5
1000043C
102
{ACAD_REACTORS
330
10000439
102
}
330
10000439
100
AcDbXrecord
1040
0.0
1040
0.0
1040
0.0
  0
XRECORD
  5
1000043D
102
{ACAD_REACTORS
330
10000439
102
}
330
10000439
100
AcDbXrecord
 40
0.0
  0
XRECORD
  5
1000043A
102
{ACAD_REACTORS
330
10000439
102
}
330
10000439
100
AcDbXrecord
1000
JLB
  0
ACAD_PROXY_OBJECT
  5
1000043B
102
{ACAD_REACTORS
330
10000439
102
}
330
10000439
100
AcDbProxyObject
 90
      499
 91
      509
 93
       34
310
40C8804040
  0
XRECORD
  5
10000441
102
{ACAD_REACTORS
330
1000043E
102
}
330
1000043E
100
AcDbXrecord
1040
0.0
1040
0.0
1040
0.0
  0
XRECORD
  5
10000442
102
{ACAD_REACTORS
330
1000043E
102
}
330
1000043E
100
AcDbXrecord
 40
0.0
  0
XRECORD
  5
1000043F
102
{ACAD_REACTORS
330
1000043E
102
}
330
1000043E
100
AcDbXrecord
1000
JLF
  0
ACAD_PROXY_OBJECT
  5
10000440
102
{ACAD_REACTORS
330
1000043E
102
}
330
1000043E
100
AcDbProxyObject
 90
      499
 91
      509
 93
       34
310
40C8804040
  0
XRECORD
  5
10000446
102
{ACAD_REACTORS
330
10000443
102
}
330
10000443
100
AcDbXrecord
1040
0.0
1040
0.0
1040
0.0
  0
XRECORD
  5
10000447
102
{ACAD_REACTORS
330
10000443
102
}
330
10000443
100
AcDbXrecord
 40
0.0
  0
XRECORD
  5
10000444
102
{ACAD_REACTORS
330
10000443
102
}
330
10000443
100
AcDbXrecord
1000
JLJ
  0
ACAD_PROXY_OBJECT
  5
10000445
102
{ACAD_REACTORS
330
10000443
102
}
330
10000443
100
AcDbProxyObject
 90
      499
 91
      509
 93
       34
310
40C8804040
  0
XRECORD
  5
1000044B
102
{ACAD_REACTORS
330
10000448
102
}
330
10000448
100
AcDbXrecord
1040
0.0
1040
0.0
1040
0.0
  0
XRECORD
  5
1000044C
102
{ACAD_REACTORS
330
10000448
102
}
330
10000448
100
AcDbXrecord
 40
0.0
  0
XRECORD
  5
10000449
102
{ACAD_REACTORS
330
10000448
102
}
330
10000448
100
AcDbXrecord
1000
JLN
  0
ACAD_PROXY_OBJECT
  5
1000044A
102
{ACAD_REACTORS
330
10000448
102
}
330
10000448
100
AcDbProxyObject
 90
      499
 91
      509
 93
       34
310
40C8804040
  0
XRECORD
  5
1000044E
102
{ACAD_REACTORS
330
1000044D
102
}
330
1000044D
100
AcDbXrecord
1000
JLR
  0
XRECORD
  5
10000450
102
{ACAD_REACTORS
330
1000044F
102
}
330
1000044F
100
AcDbXrecord
1000
JLV
  0
XRECORD
  5
10000452
102
{ACAD_REACTORS
330
10000451
102
}
330
10000451
100
AcDbXrecord
1000
JLZ
  0
XRECORD
  5
10000454
102
{ACAD_REACTORS
330
10000453
102
}
330
10000453
100
AcDbXrecord
1000
JLd
  0
XRECORD
  5
10000458
102
{ACAD_REACTORS
330
10000455
102
}
330
10000455
100
AcDbXrecord
1040
0.0
1040
0.0
1040
0.0
  0
XRECORD
  5
10000459
102
{ACAD_REACTORS
330
10000455
102
}
330
10000455
100
AcDbXrecord
 40
0.0
  0
XRECORD
  5
10000456
102
{ACAD_REACTORS
330
10000455
102
}
330
10000455
100
AcDbXrecord
1000
JL1
  0
ACAD_PROXY_OBJECT
  5
10000457
102
{ACAD_REACTORS
330
10000455
102
}
330
10000455
100
AcDbProxyObject
 90
      499
 91
      509
 93
       34
310
40C8804040
  0
XRECORD
  5
1000045D
102
{ACAD_REACTORS
330
1000045A
102
}
330
1000045A
100
AcDbXrecord
1040
0.0
1040
0.0
1040
0.0
  0
XRECORD
  5
1000045E
102
{ACAD_REACTORS
330
1000045A
102
}
330
1000045A
100
AcDbXrecord
 40
0.0
  0
XRECORD
  5
1000045B
102
{ACAD_REACTORS
330
1000045A
102
}
330
1000045A
100
AcDbXrecord
1000
JL5
  0
ACAD_PROXY_OBJECT
  5
1000045C
102
{ACAD_REACTORS
330
1000045A
102
}
330
1000045A
100
AcDbProxyObject
 90
      499
 91
      509
 93
       34
310
40C8804040
  0
XRECORD
  5
10000463
102
{ACAD_REACTORS
330
10000462
102
}
330
10000462
100
AcDbXrecord
1000
JL9
  0
XRECORD
  5
10000466
102
{ACAD_REACTORS
330
10000465
102
}
330
10000465
100
AcDbXrecord
1000
KLBB
  0
XRECORD
  5
10000468
102
{ACAD_REACTORS
330
10000467
102
}
330
10000467
100
AcDbXrecord
1000
KLFB
  0
XRECORD
  5
1000046A
102
{ACAD_REACTORS
330
10000469
102
}
330
10000469
100
AcDbXrecord
1000
KLJB
  0
XRECORD
  5
1000046C
102
{ACAD_REACTORS
330
1000046B
102
}
330
1000046B
100
AcDbXrecord
1000
KLNB
  0
XRECORD
  5
1000046E
102
{ACAD_REACTORS
330
1000046D
102
}
330
1000046D
100
AcDbXrecord
1000
KLRB
  0
XRECORD
  5
10000470
102
{ACAD_REACTORS
330
1000046F
102
}
330
1000046F
100
AcDbXrecord
1000
KLVB
  0
XRECORD
  5
10000472
102
{ACAD_REACTORS
330
10000471
102
}
330
10000471
100
AcDbXrecord
1000
KLZB
  0
XRECORD
  5
10000474
102
{ACAD_REACTORS
330
10000473
102
}
330
10000473
100
AcDbXrecord
1000
KLdB
  0
MATERIAL
  5
45
102
{ACAD_REACTORS
330
43
102
}
102
{ACAD_XDICTIONARY
360
100004A6
102
}
330
43
100
AcDbMaterial
  1
BYBLOCK
  0
MATERIAL
  5
44
102
{ACAD_REACTORS
330
43
102
}
102
{ACAD_XDICTIONARY
360
100004A4
102
}
330
43
100
AcDbMaterial
  1
BYLAYER
  0
MATERIAL
  5
46
102
{ACAD_REACTORS
330
43
102
}
102
{ACAD_XDICTIONARY
360
100004A8
102
}
330
43
100
AcDbMaterial
  1
GLOBAL
  0
ACAD_PROXY_OBJECT
  5
6C
102
{ACAD_REACTORS
330
6B
102
}
330
6B
100
AcDbProxyObject
 90
      499
 91
      505
 93
      610
310
40901902A4063FBFFFFFE056BD1B81E855B9FC0AD7A3703D0AD73F4214DD185B99185C9900AD7A3703D0AC73F90141901A02B5E8DC0F42B1CFC02B5E8DC0F42B1CFE5764000000000000300FC0
340
14
340
0
340
11
340
0
 94
        0
1001
ACAD_MLEADERVER
1070
     2
  0
MLINESTYLE
  5
18
102
{ACAD_REACTORS
330
17
102
}
330
17
100
AcDbMlineStyle
  2
Standard
 70
     0
  3

 62
   256
 51
90.0
 52
90.0
 71
     2
 49
0.5
 62
   256
  6
BYLAYER
 49
-0.5
 62
   256
  6
BYLAYER
  0
ACAD_PROXY_OBJECT
  5
10000023
102
{ACAD_REACTORS
330
47
102
}
330
47
100
AcDbProxyObject
 90
      499
 91
      503
 93
      121
310
9053130303A310000000000001650100
  0
ACAD_PROXY_OBJECT
  5
1000001D
102
{ACAD_REACTORS
330
47
102
}
330
47
100
AcDbProxyObject
 90
      499
 91
      503
 93
      113
310
90431303A310000000000000910100
  0
ACAD_PROXY_OBJECT
  5
1000001E
102
{ACAD_REACTORS
330
47
102
}
330
47
100
AcDbProxyObject
 90
      499
 91
      503
 93
      113
310
90431323A310000000000000A10100
  0
ACAD_PROXY_OBJECT
  5
1000001F
102
{ACAD_REACTORS
330
47
102
}
330
47
100
AcDbProxyObject
 90
      499
 91
      503
 93
      113
310
90431363A310000000000000C10100
  0
ACAD_PROXY_OBJECT
  5
10000006
102
{ACAD_REACTORS
330
47
102
}
330
47
100
AcDbProxyObject
 90
      499
 91
      503
 93
       41
310
903313A31500
  0
ACAD_PROXY_OBJECT
  5
1000000D
102
{ACAD_REACTORS
330
47
102
}
330
47
100
AcDbProxyObject
 90
      499
 91
      503
 93
      113
310
904313A31304000000000000244000
  0
ACAD_PROXY_OBJECT
  5
10000016
102
{ACAD_REACTORS
330
47
102
}
330
47
100
AcDbProxyObject
 90
      499
 91
      503
 93
      121
310
905313A3130304000000000000594000
  0
ACAD_PROXY_OBJECT
  5
1000000E
102
{ACAD_REACTORS
330
47
102
}
330
47
100
AcDbProxyObject
 90
      499
 91
      503
 93
      113
310
904313A31324000000000000284000
  0
ACAD_PROXY_OBJECT
  5
1000000F
102
{ACAD_REACTORS
330
47
102
}
330
47
100
AcDbProxyObject
 90
      499
 91
      503
 93
      113
310
904313A31364000000000000304000
  0
ACAD_PROXY_OBJECT
  5
10000007
102
{ACAD_REACTORS
330
47
102
}
330
47
100
AcDbProxyObject
 90
      499
 91
      503
 93
      105
310
903313A324000000000000004000
  0
ACAD_PROXY_OBJECT
  5
10000010
102
{ACAD_REACTORS
330
47
102
}
330
47
100
AcDbProxyObject
 90
      499
 91
      503
 93
      113
310
904313A32304000000000000344000
  0
ACAD_PROXY_OBJECT
  5
10000011
102
{ACAD_REACTORS
330
47
102
}
330
47
100
AcDbProxyObject
 90
      499
 91
      503
 93
      113
310
904313A32354000000000000394000
  0
ACAD_PROXY_OBJECT
  5
10000008
102
{ACAD_REACTORS
330
47
102
}
330
47
100
AcDbProxyObject
 90
      499
 91
      503
 93
      105
310
903313A334000000000000084000
  0
ACAD_PROXY_OBJECT
  5
10000012
102
{ACAD_REACTORS
330
47
102
}
330
47
100
AcDbProxyObject
 90
      499
 91
      503
 93
      113
310
904313A33324000000000000404000
  0
ACAD_PROXY_OBJECT
  5
10000009
102
{ACAD_REACTORS
330
47
102
}
330
47
100
AcDbProxyObject
 90
      499
 91
      503
 93
      105
310
903313A344000000000000104000
  0
ACAD_PROXY_OBJECT
  5
10000013
102
{ACAD_REACTORS
330
47
102
}
330
47
100
AcDbProxyObject
 90
      499
 91
      503
 93
      113
310
904313A34304000000000000444000
  0
ACAD_PROXY_OBJECT
  5
1000000A
102
{ACAD_REACTORS
330
47
102
}
330
47
100
AcDbProxyObject
 90
      499
 91
      503
 93
      105
310
903313A354000000000000144000
  0
ACAD_PROXY_OBJECT
  5
10000014
102
{ACAD_REACTORS
330
47
102
}
330
47
100
AcDbProxyObject
 90
      499
 91
      503
 93
      113
310
904313A35304000000000000494000
  0
ACAD_PROXY_OBJECT
  5
1000000B
102
{ACAD_REACTORS
330
47
102
}
330
47
100
AcDbProxyObject
 90
      499
 91
      503
 93
      105
310
903313A364000000000000184000
  0
ACAD_PROXY_OBJECT
  5
1000000C
102
{ACAD_REACTORS
330
47
102
}
330
47
100
AcDbProxyObject
 90
      499
 91
      503
 93
      105
310
903313A384000000000000204000
  0
ACAD_PROXY_OBJECT
  5
10000015
102
{ACAD_REACTORS
330
47
102
}
330
47
100
AcDbProxyObject
 90
      499
 91
      503
 93
      113
310
904313A38304000000000000544000
  0
ACAD_PROXY_OBJECT
  5
10000020
102
{ACAD_REACTORS
330
47
102
}
330
47
100
AcDbProxyObject
 90
      499
 91
      503
 93
      113
310
90432303A310000000000000D10100
  0
ACAD_PROXY_OBJECT
  5
10000017
102
{ACAD_REACTORS
330
47
102
}
330
47
100
AcDbProxyObject
 90
      499
 91
      503
 93
      105
310
903323A310000000000000010100
  0
ACAD_PROXY_OBJECT
  5
10000021
102
{ACAD_REACTORS
330
47
102
}
330
47
100
AcDbProxyObject
 90
      499
 91
      503
 93
      113
310
90433323A310000000000001010100
  0
ACAD_PROXY_OBJECT
  5
10000018
102
{ACAD_REACTORS
330
47
102
}
330
47
100
AcDbProxyObject
 90
      499
 91
      503
 93
      105
310
903333A310000000000000210100
  0
ACAD_PROXY_OBJECT
  5
10000019
102
{ACAD_REACTORS
330
47
102
}
330
47
100
AcDbProxyObject
 90
      499
 91
      503
 93
      105
310
903343A310000000000000410100
  0
ACAD_PROXY_OBJECT
  5
10000022
102
{ACAD_REACTORS
330
47
102
}
330
47
100
AcDbProxyObject
 90
      499
 91
      503
 93
      113
310
90435303A310000000000001250100
  0
ACAD_PROXY_OBJECT
  5
1000001A
102
{ACAD_REACTORS
330
47
102
}
330
47
100
AcDbProxyObject
 90
      499
 91
      503
 93
      105
310
903353A310000000000000510100
  0
ACAD_PROXY_OBJECT
  5
1000001B
102
{ACAD_REACTORS
330
47
102
}
330
47
100
AcDbProxyObject
 90
      499
 91
      503
 93
      105
310
903363A310000000000000610100
  0
ACAD_PROXY_OBJECT
  5
1000001C
102
{ACAD_REACTORS
330
47
102
}
330
47
100
AcDbProxyObject
 90
      499
 91
      503
 93
      105
310
903383A310000000000000810100
  0
ACAD_PROXY_OBJECT
  5
2F
102
{ACAD_REACTORS
330
2A
102
}
330
2A
100
AcDbProxyObject
 90
      499
 91
      501
 93
      436
310
42CC9915DA5C99599C985B595049028333333333333E33F0000000000000F90107901411070040501600405405064090741402480A0340
1001
ACAD
1000
AcDbSavedByObjectVersion
1070
     0
  0
ACAD_PROXY_OBJECT
  5
32
102
{ACAD_REACTORS
330
2A
102
}
330
2A
100
AcDbProxyObject
 90
      499
 91
      501
 93
      388
310
4150985CDA58D07406404333333333333E33F0000000000000F90107A41107004050150841D405064090741402480A0350
1001
ACAD
1000
AcDbSavedByObjectVersion
1070
     0
  0
ACAD_PROXY_OBJECT
  5
36
102
{ACAD_REACTORS
330
2A
102
}
330
2A
100
AcDbProxyObject
 90
      499
 91
      501
 93
      428
310
42109C9A59DA1D195B90C409028333333333333E33F0000000000000F9010790141107004050150841D405064090741402480A029950
1001
ACAD
1000
AcDbSavedByObjectVersion
1070
     0
  0
ACAD_PROXY_OBJECT
  5
3A
102
{ACAD_REACTORS
330
2A
102
}
330
2A
100
AcDbProxyObject
 90
      499
 91
      501
 93
      452
310
42D0DBDB1BDC90DA185B99D95104090240C333333333333E33F0000000000000F90108901411070040501508421405064090741402480A0350
1001
ACAD
1000
AcDbSavedByObjectVersion
1070
     0
  0
ACAD_PROXY_OBJECT
  5
34
102
{ACAD_REACTORS
330
2A
102
}
330
2A
100
AcDbProxyObject
 90
      499
 91
      501
 93
      500
310
4290DBDB98D95C1D1D585B10940D028333333333333E33F0000000000000F90107902409070040501000000000018199010841D405064090740C02480A0340
1001
ACAD
1000
AcDbSavedByObjectVersion
1070
     0
  0
ACAD_PROXY_OBJECT
  5
35
102
{ACAD_REACTORS
330
2A
102
}
330
2A
100
AcDbProxyObject
 90
      499
 91
      501
 93
      412
310
40D11A5B50B409028333333333333E33F0000000000000F9010790141107004050150841D405064090741402480A02677FFFFFD0
1001
ACAD
1000
AcDbSavedByObjectVersion
1070
     0
  0
ACAD_PROXY_OBJECT
  5
3D
102
{ACAD_REACTORS
330
2A
102
}
330
2A
100
AcDbProxyObject
 90
      499
 91
      501
 93
      452
310
43115919D950DBDB1BDC93D999916409028333333333333E33F0000000000000F9010790141107004050150841D405064090741402480A0350
1001
ACAD
1000
AcDbSavedByObjectVersion
1070
     0
  0
ACAD_PROXY_OBJECT
  5
39
102
{ACAD_REACTORS
330
2A
102
}
330
2A
100
AcDbProxyObject
 90
      499
 91
      501
 93
      444
310
42D19858D95C185D1D195C9B90F409028333333333333E33F0000000000000F9010790141107004050150841D405064090741402480A0350
1001
ACAD
1000
AcDbSavedByObjectVersion
1070
     0
  0
ACAD_PROXY_OBJECT
  5
2B
102
{ACAD_REACTORS
330
2A
102
}
330
2A
100
AcDbProxyObject
 90
      499
 91
      501
 93
      380
310
41119B185D240901404333333333333E33F0000000000000F9010740A907004050150841D405064090741402480A1B50
1001
ACAD
1000
AcDbSavedByObjectVersion
1070
     0
  0
ACAD_PROXY_OBJECT
  5
2C
102
{ACAD_REACTORS
330
2A
102
}
330
2A
100
AcDbProxyObject
 90
      499
 91
      501
 93
      468
310
43519B185D15DA5D1A115919D95CD0140901404333333333333E33F0000000000000F90107409019070040501600405405064090741402480A1B50
1001
ACAD
1000
AcDbSavedByObjectVersion
1070
     0
  0
ACAD_PROXY_OBJECT
  5
2D
102
{ACAD_REACTORS
330
2A
102
}
330
2A
100
AcDbProxyObject
 90
      499
 91
      501
 93
      404
310
41D1DBDD5C985D5910240902404333333333333E33F0000000000000F9010740A9070040501641D405064090741402480A1B50
1001
ACAD
1000
AcDbSavedByObjectVersion
1070
     0
  0
ACAD_PROXY_OBJECT
  5
2E
102
{ACAD_REACTORS
330
2A
102
}
330
2A
100
AcDbProxyObject
 90
      499
 91
      501
 93
      492
310
4411DBDD5C985D5915DA5D1A115919D95CD0340902404333333333333E33F0000000000000F90107409019070040501600405405064090741402480A1B50
1001
ACAD
1000
AcDbSavedByObjectVersion
1070
     0
  0
ACAD_PROXY_OBJECT
  5
31
102
{ACAD_REACTORS
330
2A
102
}
330
2A
100
AcDbProxyObject
 90
      499
 91
      501
 93
      476
310
41921A5919195B90640502408333333333333E33F0000000000000F901079024090700405020000000000001110200405405064090740C02480A0340
1001
ACAD
1000
AcDbSavedByObjectVersion
1070
     0
  0
ACAD_PROXY_OBJECT
  5
3B
102
{ACAD_REACTORS
330
2A
102
}
330
2A
100
AcDbProxyObject
 90
      499
 91
      501
 93
      428
310
42529A5D1D195C93D999914409028333333333333E33F0000000000000F9010790141107004050150A41D405064090741402480A0350
1001
ACAD
1000
AcDbSavedByObjectVersion
1070
     0
  0
ACAD_PROXY_OBJECT
  5
38
102
{ACAD_REACTORS
330
2A
102
}
330
2A
100
AcDbProxyObject
 90
      499
 91
      501
 93
      444
310
42D31A5B995C185D1D195C9B90E409028333333333333E33F0000000000000F9010790141107004050750841D405064090741402483A0350
1001
ACAD
1000
AcDbSavedByObjectVersion
1070
     0
  0
ACAD_PROXY_OBJECT
  5
3C
102
{ACAD_REACTORS
330
2A
102
}
330
2A
100
AcDbProxyObject
 90
      499
 91
      501
 93
      444
310
42D3DD995C9A185B99D3D999915409028333333333333E33F0000000000000F9010790141107004050150941D405064090741402480A0350
1001
ACAD
1000
AcDbSavedByObjectVersion
1070
     0
  0
ACAD_PROXY_OBJECT
  5
33
102
{ACAD_REACTORS
330
2A
102
}
330
2A
100
AcDbProxyObject
 90
      499
 91
      501
 93
      428
310
425499585B1A5CDD1A58D08409038333333333333E33F0000000000000F9010740A907004050150800405405064090740C02480A1B40
1001
ACAD
1000
AcDbSavedByObjectVersion
1070
     0
  0
ACAD_PROXY_OBJECT
  5
42
102
{ACAD_REACTORS
330
2A
102
}
330
2A
100
AcDbProxyObject
 90
      499
 91
      501
 93
      420
310
4194DA1859195911B40902404333333333333E33F0000000000000F9010740A41107004050150800405405064090840C02480A0B40
1001
ACAD
1000
AcDbSavedByObjectVersion
1070
     0
  0
ACAD_PROXY_OBJECT
  5
41
102
{ACAD_REACTORS
330
2A
102
}
330
2A
100
AcDbProxyObject
 90
      499
 91
      501
 93
      516
310
4454DA18591959081DDA5D1A08195919D95CD1A40902404333333333333E33F0000000000000F901074090142907004050250800405405064090740C02480A0B40
1001
ACAD
1000
AcDbSavedByObjectVersion
1070
     0
  0
ACAD_PROXY_OBJECT
  5
3E
102
{ACAD_REACTORS
330
2A
102
}
330
2A
100
AcDbProxyObject
 90
      499
 91
      501
 93
      532
310
4394DA1859195CC81BD98811DC985E5174090240C333333333333E33F0000000000000F901079024090741D01000000000000111010841D405064090740C02480A0340
1001
ACAD
1000
AcDbSavedByObjectVersion
1070
     0
  0
ACAD_PROXY_OBJECT
  5
3F
102
{ACAD_REACTORS
330
2A
102
}
330
2A
100
AcDbProxyObject
 90
      499
 91
      501
 93
      476
310
41D4DAD95D18DA1E51840502408333333333333E33F0000000000000F901079024090741D01000000000000111010B41D405064090741802480A0340
1001
ACAD
1000
AcDbSavedByObjectVersion
1070
     0
  0
ACAD_PROXY_OBJECT
  5
37
102
{ACAD_REACTORS
330
2A
102
}
330
2A
100
AcDbProxyObject
 90
      499
 91
      501
 93
      412
310
41D51A1A58DAD95B90D409028333333333333E33F0000000000000F9010790141107004050150C41D405064090741402480A0350
1001
ACAD
1000
AcDbSavedByObjectVersion
1070
     0
  0
ACAD_PROXY_OBJECT
  5
30
102
{ACAD_REACTORS
330
2A
102
}
330
2A
100
AcDbProxyObject
 90
      499
 91
      501
 93
      420
310
4255DA5C99599C985B595059028333333333333E33F0000000000000F90107901411070040501600405405064090740C02480A0340
1001
ACAD
1000
AcDbSavedByObjectVersion
1070
     0
  0
ACAD_PROXY_OBJECT
  5
40
102
{ACAD_REACTORS
330
2A
102
}
330
2A
100
AcDbProxyObject
 90
      499
 91
      501
 93
      404
310
41560B54985E51940902404000000000000E03F0000000000000F9010740501907004050150841D405064090740C02480A1B40
1001
ACAD
1000
AcDbSavedByObjectVersion
1070
     0
  0
XRECORD
  5
10000481
102
{ACAD_REACTORS
330
10000477
102
}
330
10000477
100
AcDbXrecord
340
0
  0
XRECORD
  5
10000480
102
{ACAD_REACTORS
330
10000477
102
}
330
10000477
100
AcDbXrecord
 90
        0
  0
XRECORD
  5
10000497
102
{ACAD_REACTORS
330
10000477
102
}
330
10000477
100
AcDbXrecord
1000
DSTYLE
1002
{
1070
   340
340
11
1002
}
  0
XRECORD
  5
10000482
102
{ACAD_REACTORS
330
10000477
102
}
330
10000477
100
AcDbXrecord
  1
{6A1107A7-8350-ADB7-9956-A37F2209D394}
  0
XRECORD
  5
1000047A
102
{ACAD_REACTORS
330
10000477
102
}
330
10000477
100
AcDbXrecord
  1

  0
XRECORD
  5
1000047F
102
{ACAD_REACTORS
330
10000477
102
}
330
10000477
100
AcDbXrecord
 90
        1
  0
XRECORD
  5
1000047C
102
{ACAD_REACTORS
330
10000477
102
}
330
10000477
100
AcDbXrecord
340
1A
  0
XRECORD
  5
1000047E
102
{ACAD_REACTORS
330
10000477
102
}
330
10000477
100
AcDbXrecord
 90
    10781
  0
XRECORD
  5
1000047D
102
{ACAD_REACTORS
330
10000477
102
}
330
10000477
100
AcDbXrecord
340
19
  0
XRECORD
  5
10000484
102
{ACAD_REACTORS
330
10000477
102
}
330
10000477
100
AcDbXrecord
 40
0.0
  0
XRECORD
  5
10000487
102
{ACAD_REACTORS
330
10000477
102
}
330
10000477
100
AcDbXrecord
340
0
  0
XRECORD
  5
1000048D
102
{ACAD_REACTORS
330
10000477
102
}
330
10000477
100
AcDbXrecord
 10
0.0
 20
0.0
 30
0.0
  0
XRECORD
  5
10000489
102
{ACAD_REACTORS
330
10000477
102
}
330
10000477
100
AcDbXrecord
 10
0.0
 20
0.0
 30
0.0
  0
XRECORD
  5
1000048C
102
{ACAD_REACTORS
330
10000477
102
}
330
10000477
100
AcDbXrecord
 10
0.0
 20
0.0
 30
0.0
  0
XRECORD
  5
1000048A
102
{ACAD_REACTORS
330
10000477
102
}
330
10000477
100
AcDbXrecord
 10
0.0
 20
0.0
 30
0.0
  0
XRECORD
  5
1000048B
102
{ACAD_REACTORS
330
10000477
102
}
330
10000477
100
AcDbXrecord
 10
0.0
 20
0.0
 30
0.0
  0
XRECORD
  5
10000488
102
{ACAD_REACTORS
330
10000477
102
}
330
10000477
100
AcDbXrecord
 10
0.0
 20
0.0
 30
0.0
  0
XRECORD
  5
10000485
102
{ACAD_REACTORS
330
10000477
102
}
330
10000477
100
AcDbXrecord
340
0
  0
XRECORD
  5
10000486
102
{ACAD_REACTORS
330
10000477
102
}
330
10000477
100
AcDbXrecord
 70
     0
  0
XRECORD
  5
1000047B
102
{ACAD_REACTORS
330
10000477
102
}
330
10000477
100
AcDbXrecord
  1

  0
XRECORD
  5
10000478
102
{ACAD_REACTORS
330
10000477
102
}
330
10000477
100
AcDbXrecord
 90
        1
  0
XRECORD
  5
10000479
102
{ACAD_REACTORS
330
10000477
102
}
330
10000477
100
AcDbXrecord
 90
       70
  0
XRECORD
  5
10000490
102
{ACAD_REACTORS
330
10000477
102
}
330
10000477
100
AcDbXrecord
340
0
  0
XRECORD
  5
10000496
102
{ACAD_REACTORS
330
10000477
102
}
330
10000477
100
AcDbXrecord
 10
0.0
 20
0.0
 30
0.0
  0
XRECORD
  5
10000492
102
{ACAD_REACTORS
330
10000477
102
}
330
10000477
100
AcDbXrecord
 10
0.0
 20
0.0
 30
0.0
  0
XRECORD
  5
10000495
102
{ACAD_REACTORS
330
10000477
102
}
330
10000477
100
AcDbXrecord
 10
0.0
 20
0.0
 30
0.0
  0
XRECORD
  5
10000493
102
{ACAD_REACTORS
330
10000477
102
}
330
10000477
100
AcDbXrecord
 10
0.0
 20
0.0
 30
0.0
  0
XRECORD
  5
10000494
102
{ACAD_REACTORS
330
10000477
102
}
330
10000477
100
AcDbXrecord
 10
0.0
 20
0.0
 30
0.0
  0
XRECORD
  5
10000491
102
{ACAD_REACTORS
330
10000477
102
}
330
10000477
100
AcDbXrecord
 10
0.0
 20
0.0
 30
0.0
  0
XRECORD
  5
1000048E
102
{ACAD_REACTORS
330
10000477
102
}
330
10000477
100
AcDbXrecord
340
0
  0
XRECORD
  5
1000048F
102
{ACAD_REACTORS
330
10000477
102
}
330
10000477
100
AcDbXrecord
 70
     0
  0
XRECORD
  5
10000483
102
{ACAD_REACTORS
330
10000477
102
}
330
10000477
100
AcDbXrecord
  1
{FAEB1C32-E019-11D5-929B-00C0DF256EC4}
  0
DICTIONARYVAR
  5
100004A2
102
{ACAD_REACTORS
330
10000498
102
}
330
10000498
100
DictionaryVariables
280
     0
  1
1:1
  0
DICTIONARYVAR
  5
1000049A
102
{ACAD_REACTORS
330
10000498
102
}
330
10000498
100
DictionaryVariables
280
     0
  1
Standard
  0
DICTIONARYVAR
  5
10000499
102
{ACAD_REACTORS
330
10000498
102
}
330
10000498
100
DictionaryVariables
280
     0
  1
Standard
  0
DICTIONARYVAR
  5
1000049D
102
{ACAD_REACTORS
330
10000498
102
}
330
10000498
100
DictionaryVariables
280
     0
  1
2
  0
DICTIONARYVAR
  5
1000049E
102
{ACAD_REACTORS
330
10000498
102
}
330
10000498
100
DictionaryVariables
280
     0
  1
1
  0
DICTIONARYVAR
  5
100004A3
102
{ACAD_REACTORS
330
10000498
102
}
330
10000498
100
DictionaryVariables
280
     0
  1
1
  0
XRECORD
  5
10000003
102
{ACAD_REACTORS
330
10000001
102
}
330
10000001
100
AcDbXrecord
 70
     5
  0
XRECORD
  5
10000002
102
{ACAD_REACTORS
330
10000001
102
}
330
10000001
100
AcDbXrecord
1040
86.0
  0
ACAD_PROXY_OBJECT
  5
10000005
102
{ACAD_REACTORS
330
10000001
102
}
330
10000001
100
AcDbProxyObject
 90
      499
 91
      509
 93
       34
310
40C8804000
  0
DICTIONARY
  5
100004A6
330
45
100
AcDbDictionary
280
     1
  3
ACAD_XREC_ROUNDTRIP
360
100004A7
  0
DICTIONARY
  5
100004A4
330
44
100
AcDbDictionary
280
     1
  3
ACAD_XREC_ROUNDTRIP
360
100004A5
  0
DICTIONARY
  5
100004A8
330
46
100
AcDbDictionary
280
     1
  3
ACAD_XREC_ROUNDTRIP
360
100004A9
  0
XRECORD
  5
100004A7
102
{ACAD_REACTORS
330
100004A6
102
}
330
100004A6
100
AcDbXrecord
102
MATERIAL
148
0.0
149
0.0
149
0.0
 93
        0
 94
      127
282
     0
 72
     1
 77
     1
171
     1
175
     1
179
     1
273
     0
  0
XRECORD
  5
100004A5
102
{ACAD_REACTORS
330
100004A4
102
}
330
100004A4
100
AcDbXrecord
102
MATERIAL
148
0.0
149
0.0
149
0.0
 93
        0
 94
      127
282
     0
 72
     1
 77
     1
171
     1
175
     1
179
     1
273
     0
  0
XRECORD
  5
100004A9
102
{ACAD_REACTORS
330
100004A8
102
}
330
100004A8
100
AcDbXrecord
102
MATERIAL
148
0.0
149
0.0
149
0.0
 93
        0
 94
      127
282
     0
 72
     1
 77
     1
171
     1
175
     1
179
     1
273
     0
  0
ENDSEC
  0
EOF
